Oops, an error
Loading. Please wait.

Lively Up Yourself Bass Tab

version 4
version 4

Whole song

Interactive

7,520 views 9 this week
1 commentread comment
1 2 3 4 5
x 6
add to favorites
launch autoscroll
font size
0
reset
guitar tuner
Autoscroll
slow
fast
+/-
esc
set tempo
stop
Help us to improve Ultimate-Guitar.com Take our survey!
×
Author
 Title - Lively Up Yourself
 Artist - Bob Marley & the Wailers
 Album - Natty Dread

 Tabbed by - mattydread2@gmail.com

 intro/verse riff
G|-------------------------|-------------------------|
D|------------3-5----------|--------------3-5--------|
A|---3-5----5--------3-5---|-----3-5----5--------3-5-|
E|-5---------------5-------|---5---------------5-----|


 chorus riff
G|----------------------------|----------------------------|
D|----------------------------|----------------------------|
A|---3-555----75-------3-55---|-----3-555----75-------3-55-|
E|-5------------73---5--------|---5------------73---5------|

 solo/break this part X 2 (follow first guitar) (10)=let ring
G|------------------------------------|
D|-10--------------------------10-----|
A|------------10,10,10,10,10,12-------|
E|---(10)------------------------(10)-|


 solo/break ctd. this part X 2
G|------------------------------------------|
D|-12,10--12----------------------12,10--12-|
A|------12----10,10,10,10,10-----------12---|
E|------------------------------------------|
Suggest correction
comments
print report bad tab
1 comment total.
0 reply
MayQueen~420~ 20 Jun 10, 2014 09:47 PM

Great tab! Thanks!

guest
You may want to rate the tab now too:
select rating
Wanna post a correction for this tab? Suggest correction