Oops, an error
Loading. Please wait.

Natty Dread Bass Tab

version 2
version 2

Whole song

4,231 views 6 this week
no commentswrite comment
1 2 3 4 5
please rate
add to favorites
launch autoscroll
font size
0
reset
guitar tuner
Autoscroll
slow
fast
+/-
esc
set tempo
stop
Help us to improve Ultimate-Guitar.com Take our survey!
×
Author
Title;Natty Dread
Artist;Bob Marley & the Wailers
Bassist;Aston Barrett
Album;Natty Dread

Tabbed by; mattydread2@yahoo.com

intro
G--4-------------|--4--------------|
D--------------2-|--------------2--|
A---2--2---234---|---2--2---234----|
E----------------|-----------------|

verse/chorus (main riff) play until bridge
G---------------------------------------------------|
D-----------------------------------4---------------|
A--------4-5--------0-2-2--------464---------0-2-2--|
E--5-555--------222----------5--5--------222--------|

bridge (2:12 approx.)
G------------------------------6-----------|
D----------------------------6-------------|
A--2--2222-----2--2222-----4------444-4-44-|
E---------2-2---------2-2------------------|

G------------------------------6-------------|
D----------------------------6---------------|
A--2--2222-----2--2222-----4------444-4---44-|
E---------2-2---------2-2--------------------|

play main riff til end with slight variations
Suggest correction
Give kudos to tab author, rate the tab!
1 2 3 4 5
comments
print report bad tab
guest
You may want to rate the tab now too:
select rating
Please do not post tabs as comments. Select "correction" instead!