Oops, an error
Loading. Please wait.

Natural Mystic Bass Tab

version 2
version 2

Whole song

Interactive

14,630 views 48 this week
no commentswrite comment
1 2 3 4 5
1 last vote to show rating
add to favorites
launch autoscroll
font size
0
reset
guitar tuner
Autoscroll
slow
fast
+/-
esc
set tempo
stop
Help us to improve Ultimate-Guitar.com Take our survey!
×
Author
-------------------------------------------------------------------------------
                             Natural Mystic (Bass) - Bob Marley & The Wailers
-------------------------------------------------------------------------------

Tabbed By : JonDLeary
e-mail: JonDLeary@gmail.com

The other Tab of this song was incomplete so I made another version. It's an easy 
but effective and one of my favourites.

Tuning: Standard

[Intro]

G|---------------|
D|---------------|
A|---------------|
E|--0--3---5--5--|

[Chorus]

"Theres a natural mystic blowing through the air..."

G|---------------|---------------|---------------|---------------|
D|---------------|---------------|---------------|---------------|
A|--0--3---5--5--|--3------------|---------------|---------------|
E|---------------|-----5---5--5--|--0--3---5--5--|--0--3---5--5--|

[Verse]

"This could be the first trumpet..."

G|---------------|---------------|
D|---------------|---------------|
A|--0--3---5--5--|---------------|
E|---------------|--0--3---5--5--|

[Outro]

G|---------------|
D|---------------|
A|---------------|
E|--0--3---5--5--|
Suggest correction
Give kudos to tab author, rate the tab!
1 2 3 4 5
comments
print report bad tab
guest
You may want to rate the tab now too:
select rating
Wanna post a correction for this tab? Suggest correction