Oops, an error
Loading. Please wait.

Night Shift Bass Tab

1,986 views 1 this week
no commentswrite comment
1 2 3 4 5
x 4
add to favorites
launch autoscroll
font size
0
reset
guitar tuner
Autoscroll
slow
fast
+/-
esc
set tempo
stop
Help us to improve Ultimate-Guitar.com Take our survey!
×
Author
Artist - Bob Marley & the Wailers
Title - Night Shift
Album - Rastaman Vibration
Bass Tab

Tabbed by - mattydread2@yahoo.com


G|---------------------------------------------------------|
D|--------------------5-53-------------------------5-53----|
A|--5-5-3-3--3-5---555-----5------53-3-3--3-5---555-----5--|
E|---------5---------------------5--5----5-----------------|

G|---------------------------------------------------------|
D|--------------------5-53-------------------------5-53----|
A|--5-5-3-3--3-5---555-----5------53-3-3--3-5---555-----5--|
E|---------5---------------------5--5----5-----------------|


G|-----------------------------------------------------------------|
D|-----------------------------------------------------------------|
A|--5-3----3553-5-------------------5-3----3553-5------------------|
E|------------------3-1----1331-3-------------------3-1----1331-3--|

G|-----------------------------------------------------------------|
D|-----------------------------------------------------------------|
A|--5-3----3553-5-------------------5-3----3553-5------------------|
E|------------------3-1----1331-3-------------------3-1----1331-3--|


G|-----------------------------------------------------------------|
D|-----------------------------------------------------------------|
A|--553-5---553-5-------------------553-5---553-5------------------|
E|------------------331-3---331-3-------------------331-1---331-3--|


G|---------------------------------------------------------|
D|--------------------5-53-------------------------5-53----|
A|--5-5-3-3--3-5---555-----5------53-3-3--3-5---555-----5--|
E|---------5---------------------5--5----5-----------------|

G|---------------------------------------------------------|
D|--------------------5-53-------------------------5-53----|
A|--5-5-3-3--3-5---555-----5------53-3-3--3-5---5-5-----5--|
E|---------5---------------------5--5----5-----------------|


G|-----------------------------------------------------------------|
D|-----------------------------------------------------------------|
A|--5-3----3553---------------------5-3----3553--------------------|
E|------------------3-1----1331-3-------------------3-1----1331-3--|

G|-----------------------------------------------------------------|
D|-----------------------------------------------------------------|
A|--5-3----3553---------------------5-3----3553--------------------|
E|------------------3-1----1331-3-------------------3-1----1331-3--|


G|-----------------------------------------------------------------|
D|-----------------------------------------------------------------|
A|--553-5--3553-5-------------------553-5--3553-5------------------|
E|------------------331-3--1331-3-------------------331-1--1331-3--|

G|-----------------------------------------------------------------|
D|-----------------------------------------------------------------|
A|--553-5--3553-5-------------------553-5--3553-5------------------|
E|------------------331-3--1331-3-------------------331-1--1331-3--|

G|---------------------------------------------------------|
D|--------------------5-53-------------------------5-53----|
A|--5-5-3-3--3-5---555-----5------53-3-3--3-5---555-----5--|
E|---------5---------------------5--5----5-----------------|

G|---------------------------------------------------------|
D|--------------------5-53-------------------------5-53----|
A|--5---3-3--3-5---555-----5------53-3-3--3-5---555-----5--|
E|-----5----5---------------------5--5----5----------------|
                                                        to fade...
Suggest correction
comments
print report bad tab
guest
You may want to rate the tab now too:
select rating
Wanna post a correction for this tab? Suggest correction