Oops, an error
Loading. Please wait.

No Woman No Cry Bass Tab

version 2
version 2

Whole song

21,627 views 12 this week
no commentswrite comment
1 2 3 4 5
x 8
add to favorites
launch autoscroll
font size
0
reset
guitar tuner
Autoscroll
slow
fast
+/-
esc
set tempo
stop
Help us to improve Ultimate-Guitar.com Take our survey!
×
Author
my first tab on this site

G---5--4--2---------------------|
D-----------3-----3-------------|
A---------------3------3----0-2-|
E------------------------3------|

G--5--4--2----|
D----------3--|
A-------------|
E-------------|

very easy to figure out what goes where


-----------------------------------------------------------------------
Suggest correction
comments
print report bad tab
guest
You may want to rate the tab now too:
select rating
Wanna post a correction for this tab? Suggest correction