Oops, an error
Loading. Please wait.

One Love People Get Ready Bass Tab

version 2
version 2

Whole song

Interactive

5,890 views 1 this week
no commentswrite comment
1 2 3 4 5
x 6
add to favorites
launch autoscroll
font size
0
reset
guitar tuner
Autoscroll
slow
fast
+/-
esc
set tempo
stop
Help us to improve Ultimate-Guitar.com Take our survey!
×
Author
Title - One Love (People Get Ready)
 Artist - Bob Marley & the Wailers
 Album -  Exodus

 Tabbed by - mattydread2@yahoo.com

Nice familyman bassline, good slow pace line for beginers
Play close to the neck and pinch the notes nice and short

intro
G|-------------------------------------------------|
D|-----------------------------------------------8-|
A|------8---------6-8---6-8------5-------6-8-------|
E|-6-6----6-6---8-----8------6-8---8-6--------8----|


chorus 1
G|-------------------------------------------------|
D|-------------------------------------------------|
A|------8---------6-8---6-8------5-------6-8-------|
E|-6-6----6-6---8-----8------6-8---8-6--------8--6-|

G|---------------------------------------------------|----------------------|
D|---------------------------------------------------|----------------------|
A|-8------8---------6-8---6-8-------5-------6-8------|--666-6-6-----6-8-----|
E|---6-6----6-6---8-----8-------6-8---8-6-------8--6-|----------6-------8-6-|

verse 1
G|--------------------------------------------------|
D|---------5--------------------------5-------------|
A|-----5-8-------666-6-6----------5-8--------6-8----|
E|-6-6-------3-----------6----6-6-------3---6-----6-|

G|--------------------------------------------------|
D|---------5--------------------------5-------------|
A|-----5-8-------666-666----------5-8--------6-8----|
E|-6-6-------3-----------6----6-6-------3---6-----6-|

chorus 2
G|--------------------------------------------------|
D|--------------------------------------------------|
A|-8-----8---------6-8---6-8------5-------6-8-------|
E|---6-6---6-6---8-----8------6-8---8-6--------8--6-|

G|---------------------------------------------------|-----------------------|
D|---------------------------------------------------|-----------------------|
A|-8------8---------6-8---6-8-------5------6-8-------|--666-6-6-----6-8------|
E|---6-6----6-6---8-----8-------6-8---8-6-------8--6-|----------6-------8--6-|

verse 2
G|--------------------------------------------------|
D|---------5--------------------------5-------------|
A|-----5-8-------666-6-6----------5-8--------6-8----|
E|-6-6-------3-----------6----6-6-------3---6-----6-|

G|--------------------------------------------------|
D|---------5--------------------------5-------------|
A|-----5-8--------66666----------5-8---------6-8----|
E|-6-6-------3----------6----6-6--------3---6-----6-|

chorus 3
G|-------------------------------------------------|
D|-------------------------------------------------|
A|-8-----8---------8-88--8-88-----5------6-8-------|
E|---6-6---6-6----------------6-8---8-6-------8--6-|

G|-------------------------------------------------|-----------------------|
D|-------------------------------------------------|-----------------------|
A|-8------8--------8-88--8-88-----5------6-8-------|--6-66666-----6-8------|
E|---6-6----6-6---------------6-8---8-6-------8--6-|----------6-------8--6-|
                                                  repeat this part to fade
Suggest correction
comments
print report bad tab
guest
You may want to rate the tab now too:
select rating
Wanna post a correction for this tab? Suggest correction