Oops, an error
Loading. Please wait.

One Love Bass Tab

version 2
version 2

Whole song

Interactive

7,254 views 1 this week
1 commentread comment
1 2 3 4 5
x 5
add to favorites
launch autoscroll
font size
0
reset
guitar tuner
Autoscroll
slow
fast
+/-
esc
set tempo
stop
Help us to improve Ultimate-Guitar.com Take our survey!
×
Author
Difficulty
novice
-----------------------------------------------------------------------------
			     One Love  Bob Marley
-----------------------------------------------------------------------------

Tabbed By : FOB_ROCK
e-mail: Lewis.j.Busby@googlemail.com

Chorus:    One Love, One Heart
G|------------------------11-11---11---11-11---11----|
D|---9-9---9---9-9---9-------------------------------|
A|----------------------9------9-----9-------9-------|
E|-7----7---7-----7----------------------------------|

G|---9-9---9---------------11--9------------------------|
D|--------------9-9---9---------------------------------|
A|-7-----7---------------9---7--------------------------|
E|------------7-----7-----------------------------------|

And Repeat x2


Verse: Let them all pass all their dirty remarks
G|----------------------------9-9--9------------------|
D|---9-9----9-----6-6---6--------------99----9--------|
A|--------------------------7----7--------------------|
E|-7-----7------4-----4--------------7----7-----------|

And Repeat x 4


One Love, One Heart
Let's get together and feel all right
Hear the children crying (One Love)
Hear the children crying (One Heart)
Sayin' give thanks and praise to the Lord and I will feel all right
Sayin' let's get together and feel all right

Let them all pass all their dirty remarks (One Love)
There is one question I'd really like to ask (One Heart)
Is there a place for the hopeless sinner
Who has hurt all mankind just to save his own?
Believe me

One Love, One Heart
Let's get together and feel all right
As it was in the beginning (One Love)
So shall it be in the end (One Heart)
Give thanks and praise to the Lord and I will feel all right
One more thing

Let's get together to fight this Holy Armageddon (One Love)
So when the Man comes there will be no no doom (One Song)
Have pity on those whose chances grove thinner
There ain't no hiding place from the Father of Creation

Sayin' One Love, One Heart
Let's get together and feel all right
I'm pleading to mankind (One Love)
Oh Lord (One Heart)

Give thanks and praise to the Lord and I will feel all right
Let's get together and feel all right


| /  slide up
| \  slide down
| h  hammer-on
| p  pull-off
| ~  vibrato
| +  harmonic
| x  Mute note
=============================================================
Suggest correction
comments
print report bad tab
1 comment total.
0 reply
FOB_ROCK 187 Aug 09, 2010 02:09 PM

Sorry guys But The last bit of the chorus is meant to be:

G|---9-9---9---------------11----9----------------------|
D|--------------9-9---9---------------------------------|
A|-7-----7---------------9----7-------------------------|
E|------------7-----7-----------------------------------|

Rather Than:
G|---9-9---9-----------------------------------------|
D|--------------9-9---9----11---9--------------------|
A|-7-----7-------------------------------------------|
E|------------7-----7----9----7----------------------|

guest
You may want to rate the tab now too:
select rating
Wanna post a correction for this tab? Suggest correction