Oops, an error
Loading. Please wait.

Pimpers Paradise Bass Tab

version 1
version 1

Whole song

11,146 views 12 this week
no commentswrite comment
1 2 3 4 5
x 3
add to favorites
launch autoscroll
font size
0
reset
guitar tuner
Autoscroll
slow
fast
+/-
esc
set tempo
stop
Help us to improve Ultimate-Guitar.com Take our survey!
×
Author
Title - Pimpers Paradise
Artist - Bob Marley and the Wailers
Album - Uprising

Tabbed by - mattydread2@yahoo.com

intro;
G|--------------|
D|--------------|
A|--------------|
E|-------3-3-3--|


verse chorus play X 3
G|-------------------------------------|
D|----10,7----10-10,7------------------|
A|--8-----8----------8--------2-5------|
E|-----------------------33-3-----333--|

fourth time
G|------------------------------------|
D|----10,7----10-10,7-----------------|
A|--8-----8----------8---77-7----777--|
E|---------------------------7-7------|

bridge play X 2 (over I-Threes vocal)
G|---------------------------------|
D|---------------------------------|
A|--33-3-----------------7---88-8--|
E|----------33-3----55-58----------|

reapeat verse/chorus/bridge X2 play out on verse/chorus
Suggest correction
Give kudos to tab author, rate the tab!
1 2 3 4 5
comments
print report bad tab
guest
You may want to rate the tab now too:
select rating
Wanna post a correction for this tab? Suggest correction