Oops, an error
Loading. Please wait.

Pimpers Paradise Bass Tab

version 2
version 2

Whole song

2,090 views 9 this week
no commentswrite comment
1 2 3 4 5
please rate
add to favorites
launch autoscroll
font size
0
reset
guitar tuner
Tab Pro tools
  • play this tab
  • loop segment
  • change instrument
  • show fretboard
  • metronome
Autoscroll
slow
fast
+/-
esc
set tempo
stop
  G|--------------|
  D|--------------|
  A|--------------|
  E|-------3-3-3--|

    riff for verse/chorus;
  G|---------------------------------------------|
  D|---------------------------------------------|
  A|--------3-1-----3-3-1-------------2-5--------|
  E|-----1-------1--------1---3-3-3-------3-3-3--|
     
  G|---------------------------------------------|
  D|---------------------------------------------|
  A|--------3-1----3-3-1-------------2-2---7-7-7-|
  E|-----1-------1--------1---3-3-3--------------|

  G|---------------------------------------------|
  D|-------------------------2-2-2-----2-2-2-----|
  A|--------3-1----3-3-1-----------2-2-----------|
  E|-----1-------1--------1----------------------|

   When I-three’s come in
  G|--------------------------------------|
  D|----------------------------2---------|
  A|----3-3-3----------------3------------|
  E|----------3-3-3---5-5-5--------1-1-1--|
 
  G|--------------------------------------|
  D|----------------------------2---------|
  A|----3-3-3----------------3------------|
  E|----------3-3-3---5-5-5--------1-1-1--|


One Love

comments
We did not receive enough feedback on this tab! Please rate:
print report bad tab
1 2 3 4 5
I want to post or [tab]
guest
You may want to rate the tab now too:
select rating
Please do not post tabs as comments. Select "correction" instead!