Oops, an error
Loading. Please wait.

Rebel Music Bass Tab

version 2
version 2

Whole song

2,797 views 3 this week
no commentswrite comment
1 2 3 4 5
2 more votes to show rating
add to favorites
launch autoscroll
font size
0
reset
guitar tuner
Autoscroll
slow
fast
+/-
esc
set tempo
stop
Help us to improve Ultimate-Guitar.com Take our survey!
×
Author
Title;Rebel Music 3 O'clock road block
Artist;Bob Marley & the wailers
Album;Rebel Music
Tabbed by mattydread2@yahoo.com

intro
G----------------(7)--------------------(9)--|
D--------------------------------------------|
A----7-9----7-9-------------7-9----7-9-------|
E--9------9---------------9------9-----------|


chorus
G-------------------------------------------------------------|
D-------------------------------------------------------------|
A----7-9----7-9-------5----0555----7-9-----7-9-----5----0555--|
E--9------9----------------------9--------9-------------------|

G-------------------------------------------------------------|
D-------------------------------------------------------------|
A----7-9----7-9-------5----0555----7-9-----7-9-----5----0555--|
E--9------9----------------------9--------9-------------------|

G-------------------------------------------------------------|
D-------------------------------------------------------------|
A----7-9----7-9-------5----0555----7-9-----7-9-----5----0555--|
E--9------9----------------------9--------9-------------------|


verse
G-------------------------------------------------------7------|
D--------------------------------------------------------------|
A----7-9----7-9---------5---7-------7-9-----7-9-----5----5555--|
E--9------9---------7-------------9--------9-------------------|

G-------------------------------------------------------7--------|
D----------------------------------------------------------------|
A----7-9----7-9-----------5--57------7-9-----7-9-----5----5555---|
E--9------9---------7-------------9--------9---------------------|

G-------------------------------------------------------------|
D-------------------------------------------------------------|
A----7-9----7-9-------5----0555----7-9-----7-9-----5----0555--|
E--9------9----------------------9--------9-------------------|

G-------------------------------------------------------------|
D-------------------------------------------------------------|
A----7-9----7-9---------5---5h7-----7-9-----7-9-----5--5-5h7--|
E--9------9---------7-------------9--------9------------------|

G----------------------------------------------------------|
D----------------------------------------------------------|
A----7-9----7-9---------5---5h7-----7-9-----7-9-----555-5--|
E--9------9---------7-------------9--------9---------------|


bridge
G----------------(7)--|
D---------------------|
A-----------7-9-------|
E---------9-----------|

repeat all 4 times, play out on chorus
Suggest correction
Give kudos to tab author, rate the tab!
1 2 3 4 5
comments
print report bad tab
guest
You may want to rate the tab now too:
select rating
Wanna post a correction for this tab? Suggest correction