Oops, an error
Loading. Please wait.

Roots Rock Reggae Bass Tab

version 3
version 3

Whole song

15,826 views 48 this week
no commentswrite comment
1 2 3 4 5
excellent!
x 6
add to favorites
launch autoscroll
font size
0
reset
guitar tuner
Autoscroll
slow
fast
+/-
esc
set tempo
stop
Help us to improve Ultimate-Guitar.com Take our survey!
×
Author
Title - Roots Rock Reggae
Album - Natural Mystic 
Artist - Bob Marley & the Wailers
  
Tabbed by - mattydread2@gmail.com
             mattydread2@gmail.com

( )= let note ring

intro X 2 
G|--------------7-9-7----------------|
D|------------9-------9-7-(9)--------|
A|-------------------------------(9)-|
E|-(7)-------------------------------|


chorus 1 X 4
G|-------------------------------------|
D|-------------------------------------|
A|-------9-9---(7)-----------9-9---(9)-|
E|-0-5-7-----7---------0-5-7-----9-----|


verse 1 X 4
G|------------------------------------------|
D|------------------------------------------|
A|-------9-9---7---7-5-------9-9-9---7----9-|
E|-0-5-7-----7---------7-5-7-------7----9---|


chorus/verse (repeat to fade)
G|---------------------------------------|
D|---------------------------------------|
A|-------9-9---7---7-5-------9-9-9---(9)-|
E|-0-5-7-----7---------7-5-7-------9-----|

Suggest correction
comments
print report bad tab
guest
You may want to rate the tab now too:
select rating
Wanna post a correction for this tab? Suggest correction