Oops, an error
Loading. Please wait.

Stir It Up tab

version 2
version 2

Whole song

Interactive

Video

71,912 views 87 this week
4 commentsread comments
1 2 3 4 5
x 18
add to favorites
×
Save as Personal and add changes to this tab that will be seen only by you. Learn more ›
×
You can save this tab as Personal to edit and correct it or add notes. All changes will be seen only by you. Learn more »
launch autoscroll
font size
0
reset
how to read this tab
guitar tuner
edit
Autoscroll
slow
fast
+/-
esc
set tempo
stop
Author
Unregistered
-[Song   :Stir It Up]--------------- (THIS ONE HAS THE RIFF#2 FIX)
-[Artist  : Bob Marley--(Please Do Not Put The Old One Up, Thank You.)
-[Tuning: Normal]--------------------------|
-[Riffs    : Two ]-------------------------|
-[Tab     : Bass And Guitar Info]----------|

[==================Guitar============================================]

--[Riff#1]-[99% Positive]

E|------------------------------------------|
b|------------------------------------------|
g|------------------------------------------|
d|--------------------------4-7--7---6-9----|
a|----0-4--4-5---5-4-4--5---------7---------|
e|5-----------------------------------------|

      Note:[The Open A String Can Be Played Instead Of The 5th Lower e string]

--[Riff#2]-[99% Positive] This Is The Complete Right Way To Play It On The Guitar.

E|------------------------------------------|
b|------------------------------------------|
g|------------------------------------------|
d|---4-7-----------6------------------------|
a|5-5----5-----7-7--9-7---------------------|
e|------------------------------------------|

[===========================Bass====================================]

 {Note:} [I Think The Bass Tab Is Pretty Much The Same As The Guitar's
Because It Only Used The Lower Strings. But You Could Try This One Out From
" Kelli Mcguinness "]


--[Riff#1- 100% Correct!]

G|-------------------------------------------------------|
D|-----------------2-5---4-7-----------------------------|
A|------2--3--2--3----5----------------------------------|
E|---3---------------------------------------------------|

--[Riff#2- 100---------------------------------------------| Correct!]
G|---------------------------------------------------------|
D|-------------------02------------------------------------|
A|--------02---3-3-3--3------------------------------------|
E|---3-3-3--3----------------------------------------------|


Note: [ I've Fixed The Timing So It's Better To See.]

            
            
Suggest correction
Creating personal tab
Creating personal tab
You can edit any tab online and save it as your Personal.

You can edit, replace or remove any tab part or add personal notes – all changes will be seen only by you.

Personal tabs can be accessed anytime from any device, even offline.
Learn more »
comments
print report bad tab
4 comments total. Showing first comments.
0 reply
rastaman_Marley 90 Jun 23, 2006 06:31 PM

good tab but someone should really tab the solo

+1 reply
Coc0nutPete 10 Sep 28, 2007 05:01 PM

Heres my take on it..

E|---------------------------------------------
b|---------------------------------------------
g|---------------------------------------------
d|---------------------------4-7---7--6-9------
a|-0--0-4--4-5---5-4----4-5---------7----------
e|---------------------------------------------


#2


E|------------------------------------------
b|------------------------------------------
g|------------------------------------------
d|------4-7-------------6-9-----------------
a|5-5-5-----5-----7-7-7-----7---------------
e|------------------------------------------

0 reply
Giusto 10 Jun 08, 2008 03:33 PM

It needs the solo but i gave it a 5 anyways.

guest
Wanna post a correction for this tab? Suggest correction