Oops, an error
Loading. Please wait.

Trenchtown Rock bass

version 2
version 2

Whole song

4,096 views 3 this week
no commentswrite comment
1 2 3 4 5
3 more votes to show rating
add to favorites
×
Save as Personal and add changes to this tab that will be seen only by you. Learn more ›
×
You can save this tab as Personal to edit and correct it or add notes. All changes will be seen only by you. Learn more »
launch autoscroll
font size
0
reset
guitar tuner
edit
Autoscroll
slow
fast
+/-
esc
set tempo
stop
Author
Title ; Trenchtown Rock
Artist ; Bob Marley & the Wailers
Bassist ; Aston Family Man Barrett

Tabbed by; mattydread2@yahoo.com
           mattydread2@gmail.com
  


riff 1 (verse) X2
G-----------------------------------------------------|
D----------------32-0----------5-----------32-0-------|
A----------555-------3-3--------------555------3-3-3--|
E---3-3---3--------------03------3---3----------------|

riff 2 (chorus) X2
G------------------------------------------------------|
D-------32-------------------------32------------------|
A--3------3-----2-5-----55-3--3------3-----2-5---55-3--|
E----3-----3-03-----------------3-----3-03-------------|


riff 3 (bridge) repeat with improv.
G---------------------------------------------------------------|
D---------------------------------------------------------------|
A----------------------------------55-555-5-055-7-5-------------|
E--55-555-5-055-55-55-555-5-055-05------------------55-055-5-05-|


            
            
Suggest correction
Creating personal tab
Creating personal tab
You can edit any tab online and save it as your Personal.

You can edit, replace or remove any tab part or add personal notes – all changes will be seen only by you.

Personal tabs can be accessed anytime from any device, even offline.
Learn more »
Give kudos to tab author, rate the tab!
1 2 3 4 5
comments
print report bad tab
guest
You may want to rate the tab now too:
select rating
Wanna post a correction for this tab? Suggest correction