Oops, an error
Loading. Please wait.

Waiting In Vain bass

version 4
version 4

Whole song

Interactive

15,232 views 33 this week
1 commentread comment
1 2 3 4 5
x 6
add to favorites
×
Save as Personal and add changes to this tab that will be seen only by you. Learn more ›
×
You can save this tab as Personal to edit and correct it or add notes. All changes will be seen only by you. Learn more »
launch autoscroll
font size
0
reset
guitar tuner
backing track
0:00
0:00
edit
Autoscroll
slow
fast
+/-
esc
set tempo
stop
Author
 Title - Waiting in Vain
 Artist - Bob Marley & the Wailers
  
 Tabbed by - mattydread2@yahoo.com
             mattydread2@gmail.com


 chorus   
G|-----------------------5-------|
D|-------------------------86----|
A|---------------4-4-64------86--|
E|--4-464--44-4-6----------------|


 verse
G|------------------------------|
D|------------------------------|
A|--------------4-4-64--44-4-6--|
E|--4-464-44-4-6----------------|



 bridge
G|-------------------------|----------------------|
D|-------------------------|----------------------|
A|--4---4-6----6---3---3---|---3-4---4-6----3-----|
E|----4------6-------3---6-|-6-----4-----------6--|

            
            
Suggest correction
Creating personal tab
Creating personal tab
You can edit any tab online and save it as your Personal.

You can edit, replace or remove any tab part or add personal notes – all changes will be seen only by you.

Personal tabs can be accessed anytime from any device, even offline.
Learn more »
comments
print report bad tab
1 comment total.
0 reply
NoahJS 33 Feb 17, 2017 05:46 PM

thank you, this one is the most accurate of all the other ones

guest
You may want to rate the tab now too:
select rating
Wanna post a correction for this tab? Suggest correction