Oops, an error
Loading. Please wait.

Want More Bass Tab

25 views 6 this week
no commentswrite comment
1 2 3 4 5
3 more votes to show rating
add to favorites
launch autoscroll
font size
0
reset
guitar tuner
Autoscroll
slow
fast
+/-
esc
set tempo
stop
Help us to improve Ultimate-Guitar.com Take our survey!
×
Author
Intro

G|---------------------------|
D|---------------------------|   x2
A|---------9-9---------------|
E|--7--7-----------3-3-3-3-3-|



Chorus

G|------------------------------------|
D|------------------------------------|
A|------5------5----5-9-9-------------|
E|--7-7----7-7----7---------3-3-3-3-3-|


Verse

G|-----------------------------|
D|-----------------------------|
A|----9--6-9-6-9-6----9--6-9---|
E|--7---------------7----------|

Chorus

G|------------------------------------|
D|------------------------------------|
A|------5------5----5-9-9-------------|
E|--7-7----7-7----7---------3-3-3-3-3-|

Verse

G|-----------------------------|
D|-----------------------------|
A|----9--6-9-6-9-6----9--6-9---|
E|--7---------------7----------|

Chorus

G|------------------------------------|
D|------------------------------------|
A|------5------5----5-9-9-------------|
E|--7-7----7-7----7---------3-3-3-3-3-|

Verse

G|-----------------------------|
D|-----------------------------|
A|----9--6-9-6-9-6----9--6-9---|
E|--7---------------7----------|
Suggest correction
Give kudos to tab author, rate the tab!
1 2 3 4 5
comments
print report bad tab
guest
You may want to rate the tab now too:
select rating
Wanna post a correction for this tab? Suggest correction