Oops, an error
Loading. Please wait.

Are You Amazed tab

22 views 1 this week
no commentswrite comment
1 2 3 4 5
3 more votes to show rating
add to favorites
×
Save as Personal and add changes to this tab that will be seen only by you. Learn more ›
×
You can save this tab as Personal to edit and correct it or add notes. All changes will be seen only by you. Learn more »
launch autoscroll
font size
0
reset
how to read this tab
guitar tuner
edit
Autoscroll
slow
fast
+/-
esc
set tempo
stop
Author
Difficulty
[pattern 1]
    Emaj7                             G#m
e|--------0----0---|-------0----0---|-------0----0---|-------0----0---|
B|------4----4---4-|-----4----4---4-|---0------------|---0------------|
G|----4------------|---4------------|-----8---8----8-|-----8---8----8-|
D|--2--------------|-2--------------|-6--------------|-6--------------|
A|-----------------|----------------|----------------|----------------|
E|-----------------|----------------|----------------|----------------|

    A                                 G#m
e|--------0----0---|-------0----0---|-------0----0---|-------0----0---|
B|----0------------|---0------------|---0------------|---0------------|
G|------8---8----8-|-----8---8----8-|-----8---8----8-|-----8---8----8-|
D|--7--------------|-7--------------|-6--------------|-6--------------|
A|-----------------|----------------|----------------|----------------|
E|-----------------|----------------|----------------|----------------|

         Emaj7
Are you amazed I love to look upon your face
        G#m
So resplendent with amazing grace
           A
Though at times you try to hide it in disgrace
              G#m
I will always love you
Cause in your eyes I see a soul that longs to dance
I'm captivated by a single glance
And when you look my way, I don't stand a chance
I have always loved you

[pattern 2]
    G.  G        A.  A        Emaj7
e|--0---0-----|--0---0-----|--------0----0---|-------0----0---|
B|--3---3-----|--5---5-----|------4----4---4-|-----4----4---4-|
G|--4---4-----|--6---6-----|----4------------|---4------------|
D|--5---5-----|--7---7-----|--2--------------|-2--------------|
A|--0---0-----|--0---0-----|-----------------|----------------|
E|------------|------------|-----------------|----------------|

        G.             G            A.              A        
Like a mother to her child, like a husband to his bride
        Emaj7
I wanna, hold you in my arms
Like a father to his son, I wanna teach you when I'm done
I wanna, keep you safe from  harm
Like an eagle with its wings, teach you to soar teach you to sing
So we can, sail out to the dawn
You've got such beauty inside, I cannot help but wonder why

[shapes 1]
     E      G#m      A
e|---0---|---0---|---0---|
B|---0---|---0---|---0---|
G|---1---|---4---|---6---|
D|---2---|---6---|---7---|
A|---2---|---6---|---7---|
E|---0---|---0---|---0---|

          E
Are you amazed I love to look upon your face
       G#m
So resplendent with amazing grace
           A
Though at times you try to hide it in disgrace
              G#m
I will always love you
Cause in your eyes I see a soul that longs to dance
I'm captivated by a single glance
And when you look my way, I don't stand a chance
I have always loved you

[shapes 2]
     G       A       E
e|---0---|---0---|---0---|
B|---3---|---5---|---0---|
G|---4---|---6---|---1---|
D|---5---|---7---|---2---|
A|---0---|---0---|---2---|
E|-------|-------|---0---|

        G              G            A               A        
Like a mother to her child, like a husband to his bride
        E
I wanna, hold you in my arms
Like a father to his son, I wanna teach you when I'm done
I wanna, keep you safe from harm
Like an eagle with its wings, teach you to soar teach you to sing
So we can, sail out to the dawn
You've got such beauty inside, I cannot help but wonder why

[shapes 1]
Are you amazed I love to look upon your face
So resplendent with amazing grace
Though at times you try to hide it in disgrace
I will always love you

[shapes 2, softer]
I wanna sleep with you at nights, you know I'm strong enough to fight
All the monsters, 'neath your bed
Be a shelter in a storm, a place to go when you're forlorn
Where you can, rest your weary head
I wanna give to you my heart and still your fear I will depart
Have you not, heard a word I said
Because I do not change my mind, I know sometimes it's hard to try

[pattern 1]
Cause in your eyes I see a soul that longs to dance
I'm captivated by a single glance
You know you're not taking, that much of a chance
I have always loved you

[shapes 1, slow strums]
Are you amazed I love to look upon your face
So resplendent with amazing grace
Though at times you try to hide it in disgrace
I will always love you

[shapes 2, energetic]
I will always love you
I will always love you
I will always love you
I will always love you…
Suggest correction
Creating personal tab
Creating personal tab
You can edit any tab online and save it as your Personal.

You can edit, replace or remove any tab part or add personal notes – all changes will be seen only by you.

Personal tabs can be accessed anytime from any device, even offline.
Learn more »
Give kudos to tab author, rate the tab!
1 2 3 4 5
comments
print report bad tab
guest
You may want to rate the tab now too:
select rating
Wanna post a correction for this tab? Suggest correction