Oops, an error
Loading. Please wait.

I Am Santa Claus Tab

997 views 1 this week
no commentswrite comment
1 2 3 4 5
please rate
add to favorites
launch autoscroll
font size
0
reset
how to read this tab
guitar tuner
Autoscroll
slow
fast
+/-
esc
set tempo
stop
Help us to improve Ultimate-Guitar.com Take our survey!
×
Author
|----------------------|
|----------------------|
|----------------------|
|---9 Bend up for -----| x 3
|---7 two seconds -----|
|-----then no bend-----|

|-------------------------------|
|-------------------------------|
|-------------------------------|
|----7--7/9-9----9-12-----7/9---|
|-9--5--5/7-7----7-10--9--5/7---|
|-7--------------------7--------|

|------------------------------------------|
|------------------------------------------|
|------------------------------------------|
|------------------------------------------| x2
|----5--5h7--7--10p9-10p9-10p9--5--5h7--7--|
|-7----------------------------------------|

|-------------------------------|
|-------------------------------|
|-------------------------------|
|----7--7/9-9----9-12-----7/9---|
|-9--5--5/7-7----7-10--9--5/7---|
|-7--------------------7--------|

|------------------------------------------|
|------------------------------------------|
|------------------------------------------|
|------------------------------------------| x2
|----5--5h7--7--10p9-10p9-10p9--5--5h7--7--|
|-7----------------------------------------|

|--------------------------------------------|
|--------------------------------------------|
|--------------------------------------------|
|--------------------------------------------|
|-----5-------------------------5------------|
|-7-7---7-6-5-5-5-0h4-5-5-6-7-7---7-6-5-5-5--|

|-------------------------------|
|-------------------------------|
|-------------------------------|
|----7--7/9-9----9-12-----7/9---|
|-9--5--5/7-7----7-10--9--5/7---|
|-7--------------------7--------|

|------------------------------------------|
|------------------------------------------|
|------------------------------------------|
|------------------------------------------| x2
|----5--5h7--7--10p9-10p9-10p9--5--5h7--7--|
|-7----------------------------------------|

|-----------------------------\----------------------- \
|----------------------------------------------------- \
|----------------------------- ----------------------- \
|-9~-----------------7~-------  ---------------------- \
|-7~-----------------5~-------   --------------------- \
|-----------------------------     \________________-- \x2
                                                      |
|---------------------------------------------------- |
|---------------------------------------------------- |
|---------------------------------------------------- |
|--------------------7-8-9---------------------7-8-9- |
|-9--9------7--7-8-9--------9--9------7--7-8-9------- |
|-7--7--7-9-----------------7--7--7-9---------------- |

|-------------------------------------------|
|-------------------------------------------|
|-------------------------------------------|
|-11-9----------------------11-9-7-6~-5-4-2-|
|------11-10-9-7------------9--7-5-4~-3-2-0-|
|----------------7-7/9-9--------------------|

|------------------------------------------|
|------------------------------------------|
|------------------------------------------|
|----7--7/9-9--12\11-12\11-12\11--7-7/9-9--|
|-9--5--5/7-7--10\9--10\9--10\9---5-5/7-7--|
|-7----------------------------------------|

|------------------------------------------|
|------------------------------------------|
|------------------------------------------|
|------------------------------------------|
|----5--5h7--7--10\9-10\9-10\9--5--5h7--7--|
|-7----------------------------------------|

|--------------------------------------------|
|--------------------------------------------|
|--------------------------------------------|
|--------------------------------------------|
|-----5-------------------------5------------|
|-7-7---7-6-5-5-5-0h4-5-5-6-7-7---7-6-5-5-5--|

|---------------------------------------------|
|---------------------------------------------|
|---------------------------------------------|
|---------------------------------------------|
|---------------------------------------------|
|-0-00000-00000-00000-00000-00000-00000-00000-|

|----------------------|
|----------------------|
|----------------------|
|---9 Bend up for -----| x 2
|---7 two seconds -----|
|-----then no bend-----|

|-----------------------------------|
|-----------------------------------|
|-----------------------------------|
|-9/7-9--7--9/7-9--11-12-11-12-11-7-| x2
|-7/5-7--5--7/5-7--9--10-9--10-9--5-|
|-----------------------------------|

|----------|
|----------|
|----------|
|-9/7-9----|
|-7/5-7----|
|----------|
Suggest correction
What's this?
You can suggest a correction to this tab. Community and Mods will review your correction and vote to approve or reject it.
comments
We did not receive enough feedback on this tab! Please rate:
print report bad tab
1 2 3 4 5
guest
You may want to rate the tab now too:
select rating
Please do not post tabs as comments. Select "correction" instead!