Oops, an error
Loading. Please wait.

The Famous Final Scene Bass Tab

52 views 1 this week
no commentswrite comment
1 2 3 4 5
3 more votes to show rating
add to favorites
launch autoscroll
font size
0
reset
guitar tuner
Autoscroll
slow
fast
+/-
esc
set tempo
stop
Help us to improve Ultimate-Guitar.com Take our survey!
×
Intro
00:08
G|---------------------------------|---------------------------------|
D|---------------------------------|---------------------------------|
A|0-----------------------0--------|----------------0-h-2---0-h-2----|
E|---------------------------------|---------------------------------|

G|---------------------------------|---------------------------------|
D|---------------------------------|---------------------------------|
A|---------------------------------|---------------------------------|
E|2-----------------------2--------|----------------0----------------|

G|---------------------------------|---------------------------------|
D|---------------------------------|---------------------------------|
A|0-----------------------0--------|0---------------4---2---0--------|
E|---------------------------------|---------------------------------|

G|---------------------------------|---------------------------------|
D|---------------------------------|---------------------------------|
A|---------------------------------|---------------------------------|
E|2-----------------------2--------|----------------0----------------|

G|---------------------------------|---------------------------------|
D|---------------------------------|---------------------------------|
A|0-----------------------0--------|----------------0-h-2---0-h-2----|
E|---------------------------------|---------------------------------|

G|---------------------------------|---------------------------------|
D|---------------------------------|---------------------------------|
A|---------------------------------|---------------------------------|
E|2-----------------------2--------|----------------0-------0--------|

Verse 1 :
G|---------------------------------|---------------------------------|
D|7-----------------------7--------|---------------------------------|
A|---------------------------------|---------------------------------|
E|---------------------------------|---------------------------------|

G|---------------------------------|---------------------------------|
D|---------------------------------|---------------------------------|
A|---------------------------------|---------------------------------|
E|2-----------------------2--------|----------------0----------------|

G|---------------------------------|---------------------------------|
D|7-----------------------7--------|---------------------------------|
A|---------------------------------|---------------------------------|
E|---------------------------------|---------------------------------|

G|---------------------------------|---------------------------------|
D|---------------------------------|---------------------------------|
A|---------------------------------|---------------------------------|
E|2-----------------------2--------|----------------0----------------|

G|---------------------------------|---------------------------------|
D|7-----------------------7--------|---------------------------------|
A|---------------------------------|---------------------------------|
E|---------------------------------|---------------------------------|

G|---------------------------------|---------------------------------|
D|---------------------------------|---------------------------------|
A|---------------------------------|---------------------------------|
E|2-----------------------2--------|----------------0----------------|

G|---------------------------------|---------------------------------|
D|7-----------------------7--------|---------------------------------|
A|---------------------------------|---------------------------------|
E|---------------------------------|---------------------------------|

G|---------------------------------|---------------------------------|
D|---------------------------------|---------------------------------|
A|---------------------------------|---------------------------------|
E|2-----------------------2--------|----------------0----------------|

Chorus :
G|--------------------/---7--------|--------5------------------------|
D|---------------------------------|------------------------7---5----|
A|5--------------------------------|---------------------------------|
E|---------------------------------|---------------------------------|

G|--------------------/---9--------|--------7------------------------|
D|---------------------------------|-----------------9---7---5-------|
A|7--------------------------------|---------------------------------|
E|---------------------------------|---------------------------------|

G|---------------------------------|---------------------------------|
D|---------------------------------|---------------------------------|
A|0---------------0---2---4--------|4--------------------------------|
E|---------------------------------|---------------------------------|

G|---------------------------------|
D|---------------------------------| a short break
A|----------------2-------5--------|
E|2--------------------------------|

1:16
G|---------------------------------|---------------------------------|
D|---------------------------------|---------------------------------|
A|2--------------------------------|----------------2---4---5---6----|
E|---------------------------------|---------------------------------|

G|---------------------------------|---------------------------------|
D|---------------------------------|---------------------------------|
A|7--------------------------------|---------------------------------|
E|---------------------------------|---------------------------------|

Interlude :
G|---------------------------------|---------------------------------|
D|---------------------------------|---------------------------------|
A|0-----------------------0--------|----------------0-h-2---0-h-2----|
E|---------------------------------|---------------------------------|

G|---------------------------------|---------------------------------|
D|---------------------------------|---------------------------------|
A|---------------------------------|---------------------------------|
E|2-----------------------2--------|----------------0----------------|

G|---------------------------------|---------------------------------|
D|---------------------------------|---------------------------------|
A|0-----------------------0--------|----------------0-h-2---0-h-2----|
E|---------------------------------|---------------------------------|

G|---------------------------------|---------------------------------|
D|---------------------------------|---------------------------------|
A|---------------------------------|---------------------------------|
E|2-----------------------2--------|----------------0----------------|

Verse 2 :
G|---------------------------------|---------------------------------|
D|7-----------------------7--------|7--------------------------------|
A|---------------------------------|---------------------------------|
E|---------------------------------|---------------------------------|

G|---------------------------------|---------------------------------|
D|---------------------------------|---------------------------------|
A|---------------------------------|---------------------------------|
E|2-----------------------2--------|2---------------0----------------|

G|---------------------------------|---------------------------------|
D|7-----------------------7--------|7--------------------------------|
A|---------------------------------|---------------------------------|
E|---------------------------------|---------------------------------|

G|---------------------------------|---------------------------------|
D|---------------------------------|---------------------------------|
A|---------------------------------|----------------------------2----|
E|2-----------------------2--------|2---------------2---0---2--------|

G|---------------------------------|---------------------------------|
D|---------------------------------|---------------------------------|
A|0-----------------------0--------|---------------------------------|
E|---------------------------------|---------------------------------|

G|---------------------------------|---------------------------------|
D|---------------------------------|---------------------------------|
A|---------------------------------|----------------------------2----|
E|2-----------------------2--------|2---------------2---0---2--------|

G|---------------------------------|---------------------------------|
D|---------------------------------|---------------------------------|
A|0-----------------------0--------|---------------------------------|
E|---------------------------------|---------------------------------|

G|---------------------------------|---------------------------------|
D|---------------------------------|---------------------------------|
A|---------------------------------|---------------------------------|
E|2-------2-------2-------2--------|2-------2-------0-------0--------|

Chorus :
G|--------------------/---7--------|--------5------------------------|
D|---------------------------------|------------------------7---5----|
A|5--------------------------------|---------------------------------|
E|---------------------------------|---------------------------------|

G|--------------------/---9--------|--------7------------------------|
D|---------------------------------|-----------------9---7---5-------|
A|7--------------------------------|---------------------------------|
E|---------------------------------|---------------------------------|

G|---------------------------------|---------------------------------|
D|---------------------------------|---------------------------------|
A|0---------------0---2---4--------|4--------------------------------|
E|---------------------------------|---------------------------------|

G|---------------------------------|
D|---------------------------------| a short break
A|----------------2-------5--------|
E|2--------------------------------|

2:24
G|---------------------------------|---------------------------------|
D|---------------------------------|---------------------------------|
A|2--------------------------------|----------------2---4---5---6----|
E|---------------------------------|---------------------------------|

G|---------------------------------|---------------------------------|
D|---------------------------------|---------------------------------|
A|7--------------------------------|---------------------------------|
E|---------------------------------|---------------------------------|

Interlude :
G|---------------------------------|---------------------------------|
D|---------------------------------|---------------------------------|
A|---------------------------------|---------------------------------|
E|5-----------------------5--------|----------------5---5---5---5----|

Bridge :
G|---------------------------------|---------------------------------|
D|---------------------------------|---------------------------------|
A|---------------------------------|---------------------------------|
E|5--------------------------------|0----------3---------5-----------|

G|---------------------------------|-----------------7---5-----------|
D|---------------------------------|-------------------------5-------|
A|5-----------------------5--------|5--------------------------------|
E|---------------------------------|---------------------------------|

G|---------------------------------|---------------------------------|
D|---------------------------------|---------------------------------|
A|7-----------------------7--------|7-----------------------7---6----|
E|---------------------------------|---------------------------------|

G|---------------------------------|---------------------------------|
D|---------------------------------|--------------------6------------|
A|4-----------------------4--------|4---------------4----------------|
E|---------------------------------|---------------------------------|

G|---------------------------------|---------------------------------|
D|---------------------------------|---------------------------------|
A|4-----------------------4--------|4---------------4--------4-------|
E|---------------------------------|---------------------------------|

G|---------------------------------|--------------------5---7--------|
D|---------------------------------|----------------5----------------|
A|5-----------------------5--------|5-------5---7--------------------|
E|---------------------------------|---------------------------------|

G|7--------------------------------|---------------------------------|
D|---------------------------------|---------------------------------|
A|---------------------------------|---------------------------------|
E|---------------------------------|5-----------------------5--------|

G|---------------------------------|---------------------------------|
D|---------------------------------|---------------------------------|
A|---------------------------------|---------------------------------|
E|5--------------------------------|5--------------------------------|

G|---------------------------------|---------------------------------|
D|---------------------------------|---------------------------------|
A|---------------------------------|---------------------------------|
E|5--------------------------------|0----------3---------5-----------|

G|---------------------------------|-----------------7---5-----------|
D|---------------------------------|-------------------------5-------|
A|5-----------------------5--------|5--------------------------------|
E|---------------------------------|---------------------------------|

G|---------------------------------|---------------------------------|
D|---------------------------------|---------------------------------|
A|7-----------------------7--------|7-----------------------7---6----|
E|---------------------------------|---------------------------------|

G|---------------------------------|---------------------------------|
D|---------------------------------|--------------------6------------|
A|4-----------------------4--------|4---------------4-----------4----|
E|---------------------------------|---------------------------------|

G|---------------------------------|---------------------------------|
D|---------------------------------|---------------------------------|
A|4-----------------------4--------|4---------------4--------4-------|
E|---------------------------------|---------------------------------|

G|---------------------------------|--------------------5---7--------|
D|---------------------------------|----------------5----------------|
A|5-----------------------5--------|5-------5---7--------------------|
E|---------------------------------|---------------------------------|

G|7--------------------------------|---------------------------------|
D|---------------------------------|---------------------------------|
A|---------------------------------|---------------------------------|
E|---------------------------------|---------------------------------|

G|---------------------------------|---------------------------------|
D|---------------------------------|---------------------------------|
A|---------------------------------|---------------------------------|
E|5-----------------------5--------|5--------------------------------|

G|---------------------------------|---------------------------------|
D|---------------------------------|---------------------------------|
A|7--------------------------------|---------------------------------|
E|---------------------------------|---------------------------------|

Interlude : (piano)
G|---------------------------------|----------------5---h---7--------|
D|---------------------------------|---------------------------------|
A|5-----------------------5--------|---------------------------------|
E|---------------------------------|---------------------------------|

G|---------------------------------|---------------------------------|
D|---------------------------------|---------------------------------|
A|5-----------------------5--------|------------------------7--------|
E|---------------------------------|---------------------------------|

G|---------------------------------|---------------------------------|
D|---------------------------------|---------------------------------|
A|4-----------------------4--------|------------------------2--------|
E|---------------------------------|---------------------------------|

G|---------------------------------|---------------------------------|
D|---------------------------------|---------------------------------|
A|0--------------------------------|---------------------------------|
E|---------------------------------|---------------------------------|

Verse 3 :
G|---------------------------------|---------------------------------|
D|---------------------------------|---------------------------------|
A|0-----------------------0--------|----------------0-h-2---0-h-2----|
E|---------------------------------|---------------------------------|

G|---------------------------------|---------------------------------|
D|---------------------------------|---------------------------------|
A|---------------------------------|---------------------------------|
E|2-----------------------2--------|----------------0----------------|

G|---------------------------------|---------------------------------|
D|---------------------------------|---------------------------------|
A|0-----------------------0--------|----------------0-h-2---0-h-2----|
E|---------------------------------|---------------------------------|

G|---------------------------------|---------------------------------|
D|---------------------------------|---------------------------------|
A|---------------------------------|---------------------------------|
E|2-----------------------2--------|----------------0-----------3----|

G|---------------------------------|---------------------------------|
D|---------------------------------|---------------------------------|
A|0--------------------------------|----------------0-h-2---0-h-2----|
E|---------------------------------|---------------------------------|

G|---------------------------------|---------------------------------|
D|---------------------------------|---------------------------------|
A|---------------------------------|---------------------------------|
E|2-----------------------2--------|2---------------0----------------|

G|---------------------------------|---------------------------------|
D|---------------------------------|---------------------------------|
A|0-----------------------0--------|0---------------0-h-2---0-h-2----|
E|---------------------------------|---------------------------------|

G|---------------------------------|---------------------------------|
D|---------------------------------|---------------------------------|
A|---------------------------------|---------------------------------|
E|2-------2-------2-------2--------|2-------2-------0-------0--------|

Chorus :
G|--------------------/---7--------|--------5------------------------|
D|---------------------------------|------------------------7---5----|
A|5--------------------------------|---------------------------------|
E|---------------------------------|---------------------------------|

G|--------------------/---9--------|--------7------------------------|
D|---------------------------------|-----------------9---7---5-------|
A|7--------------------------------|---------------------------------|
E|---------------------------------|---------------------------------|

G|---------------------------------|---------------------------------|
D|---------------------------------|---------------------------------|
A|0---------------0---2---4--------|4--------------------------------|
E|---------------------------------|---------------------------------|

G|---------------------------------|
D|---------------------------------| a short break
A|----------------2-------5--------|
E|2--------------------------------|

4:37
G|---------------------------------|---------------------------------|
D|---------------------------------|---------------------------------|
A|2--------------------------------|----------------2---4---5---6----|
E|---------------------------------|---------------------------------|

G|---------------------------------|---------------------------------|
D|---------------------------------|---------------------------------|
A|7--------------------------------|---------------------------------|
E|---------------------------------|---------------------------------|

Outro :
G|---------------------------------|----------------5---h---7--------|
D|---------------------------------|---------------------------------|
A|5-----------------------5--------|---------------------------------|
E|---------------------------------|---------------------------------|

G|---------------------------------|---------------------------------|
D|---------------------------------|---------------------------------|
A|5-----------------------5--------|------------------------12--\----|
E|---------------------------------|---------------------------------|

G|---------------------------------|----------------5---h---7--------|
D|---------------------------------|---------------------------------|
A|5-----------------------5--------|---------------------------------|
E|---------------------------------|---------------------------------|

G|---------------------------------|---------------------------------|
D|---------------------------------|---------------------------------|
A|5-----------------------5--------|---------------------------------|
E|---------------------------------|---------------------------------|

G|---------------------------------|---------------------------------|
D|---------------------------------|---------------------------------|
A|0--------------------------------|---------------------------------|
E|---------------------------------|---------------------------------|
Suggest correction
Give kudos to tab author, rate the tab!
1 2 3 4 5
comments
print report bad tab
guest
You may want to rate the tab now too:
select rating
Wanna post a correction for this tab? Suggest correction