Oops, an error
Loading. Please wait.

Love Generation Tab

version 2
version 2

Whole song

Interactive

30,124 views 1 this week
3 commentsread comments
1 2 3 4 5
accurate
x 8
add to favorites
launch autoscroll
font size
0
reset
how to read this tab
guitar tuner
Autoscroll
slow
fast
+/-
esc
set tempo
stop
Help us to improve Ultimate-Guitar.com Take our survey!
×
Contributor
Difficulty
Capo
intermediate
1st fret
Song :      Love generation
Artist :    Bob Sinclar
Album :     ?
Tuning :    Standard (EADGBe)     
Tabbed by : Joey ^^
Email :     Joey_saffie@hotmail.com


Very cool song, and cool video clip too. It's acoustic,
use up- and downstrokes with a capo on 1st fret.
Standard tuning, for the rythme listen 2 song, good luck!
Questions or comments, ask me. 


                          
                   Repeat trough whole song.  
                           \_   _/
                             \ /
      C                       |   C                         
                              | 
e||---0--X-X-X--0--0-0-0-0-0-0|---0--X-X-X--0--0-0-0-0-0-0|
B||---1--X-X-X--1--1-1-1-1-1-1|---1--X-X-X--1--1-1-1-1-1-1|
G||---0--X-X-X--0--0-0-0-0-0-0|---0--X-X-X--0--0-0-0-0-0-0|
D||---2--X-X-X--2--2-2-2-2-2-2|---2--X-X-X--2--2-2-2-2-2-2|
A||---3--X-X-X--3--3-3-3-3-3-3|---3--X-X-X--3--3-3-3-3-3-3|
E||---0--X-X-X--0--0-0-0-0-0-0|---0--X-X-X--0--0-0-0-0-0-0|

      Em                          F
     
e||---0--X-X-X--0--0-0-0-0-0-0|---0--X-X-X--0--0-0-0-0-0-0|
B||---0--X-X-X--0--0-0-0-0-0-0|---0--X-X-X--0--0-0-0-0-0-0|
G||---0--X-X-X--0--0-0-0-0-0-0|---1--X-X-X--1--1-1-1-1-1-1|
D||---2--X-X-X--2--2-2-2-2-2-2|---2--X-X-X--2--2-2-2-2-2-2|
A||---2--X-X-X--2--2-2-2-2-2-2|---2--X-X-X--2--2-2-2-2-2-2|
E||---0--X-X-X--0--0-0-0-0-0-0|---X--X-X-X--X--X-X-X-X-X-X|
comments
print report bad tab
3 comments total.
0 reply
galvao 43 wrote on November 30 2005, 07:59 pm

no "solo" whispering thing
wrong chords

0 reply
sergiomn 13 wrote on April 5 2006, 09:00 pm

first 2 chords are OK. Last one is wrong. Every forum has the same mistake on the 3rd chord. Well, here they are. Only the strings with numers should sound, so be careful not to play the 5th string on the last chord.

|e|-------1--------|
|b|--6----1----2---|
|g|--6----1----3---|
|d|--6----3----4---|
|a|--4----3--------|
|E|-------1----4---|

0 reply
CanCan 840 wrote on September 6 2006, 08:01 pm

Not accurate. He brought it a tone down.

I want to post or [tab]
guest
You may want to rate the tab now too:
select rating
Please do not post tabs as comments. Select "correction" instead!