Oops, an error
Loading. Please wait.

Lay My Lily Down Chords

1,468 views 24 this week
no commentswrite comment
1 2 3 4 5
x 5
add to favorites
launch autoscroll
font size
0
reset
transpose
0
reset
display chords
guitar tuner
×
Best way to learn
"Lay My Lily Down"
Autoscroll
slow
fast
+/-
esc
set tempo
stop
Author
About this tab version
Arranged for a single acoustic guitar, with the F chords in the verse and the alternating C-F in the chorus, not found on the album version. Was this info helpful? Yes No
Lay My Lily Down
Bob Weir
From the album "Blue Mountain"
Standard tuning

[Riff]
e|----------|-------3-|----------|-----0-|----------|-------3-|----------|------3-|
B|-3p1-1----|-------0-|-3p1-1----|-1---1-|-3p1-1----|-------0-|----------|------0-|
G|----3-3p0-|-3-0---0-|----3-3p0-|-----0-|----3-3p0-|-3-0---0-|----0-3-0-|--0---0-|
D|----------|-------0-|----------|-----2-|----------|-------0-|-0h3------|-3----0-|
A|----------|-------2-|----------|---3-3-|----------|-------2-|----------|------2-|
E|----------|-----3-3-|----------|-------|----------|-----3-3-|----------|----3-3-|

e|----------|-------3-|----------|-----0-|----------|-------3--|----------|-----3-|
B|-3p1-1----|-------0-|-3p1-1----|-1---1-|-3p1-1----|-------0--|------1---|-----0-|
G|----3-3p0-|-3-0---0-|----3-3p0-|-----0-|----3-3p0-|-3-0---0--|-----0--3-|-0---0-|
D|----------|-------0-|----------|-----2-|----------|-------0--|-0h3------|-----0-|
A|----------|-------2-|----------|---3-3-|----------|-------2--|----------|-----2-|
E|----------|-----3-3-|----------|-------|----------|-----3-3--|----------|---3-3-|

[Chorus]
G
Dig a hole, dig a hole in the meadow, dig a hole in the cold, cold ground
                                         C           G     F           G
Dig a hole, dig a hole in the meadow, to lay my Lily down, lay my Lily down

[Riff]

[Verse]
G
Well the first time I saw my newborn girl, she was pullin' on her mama's hair
                                           F            G
The sun comin' through the window, and I'd known her anywhere 

[Chorus]
G
Dig a hole, dig a hole in the meadow, dig a hole in the cold, cold ground
                                         C           G        F           G
Dig a hole, dig a hole in the meadow, to lay my Lily down, to lay my Lily down

[Riff] Oh to lay my Lily down, lay my Lily down

[Verse]
G
Wake up, wake up my sleeping child, come and learn to laugh at hell
                                                F                G 
Cause the feral fire in your daddy's blood runs in your veins as well

[Chorus]
G
Dig a hole, dig a hole in the meadow, dig a hole in the cold, cold ground
                                            C           G     F           G
Dig a hole, dig a hole in the meadow, oh to lay my Lily down, lay my Lily down

[Riff]

[Verse]
G
The last time I saw little Lily, she was starin' at the windswept sea
                                         F            G
With her two pearl-handled pistols and a banjo on her knee

[Chorus]
G
Dig a hole, dig a hole in the meadow, dig a hole in the cold, cold ground
                                         C           G      
Dig a hole, dig a hole in the meadow, to lay my Lily down

[Chorus]
G
Dig a hole, dig a hole in the meadow, dig a hole in the cold, cold ground
                                            C           G     F           G
Dig a hole, dig a hole in the meadow, oh to lay my Lily down, lay my Lily down

[Outro]
C           G     F           G           C           G
Lay my Lily down, lay my Lily down, oh to lay my Lily down
Suggest correction
comments
print report bad tab
guest
You may want to rate the tab now too:
select rating
Wanna post a correction for this tab? Suggest correction