Oops, an error
Loading. Please wait.

Bury Me With My Guns On Tab

5,069 views 9 this week
no commentswrite comment
1 2 3 4 5
excellent!
x 3
add to favorites
launch autoscroll
font size
0
reset
how to read this tab
guitar tuner
Autoscroll
slow
fast
+/-
esc
set tempo
stop
Help us to improve Ultimate-Guitar.com Take our survey!
×
Author
Difficulty
Tuning
novice
C G C F A D
Bobaflex - Bury Me With My Guns On   Tried to get it as close as possible. They are 
probably a few mistakes. This tab is for Guitar one.

Username: zippyman69
Email: wrmdirtbikeracer@yahoo.com
 Intro
D|------------------------|
A|------------------------|
F|------------------------|
C|------/////-------------|
G|-----/////--------------|
C|----/////-pickslide-----|

D|----------------------------------------------|
A|--------7---------------7---------------------|
F|--------7---------------7---------------------|
C|-0-0--0s5--0-5~--0-0--0s5--5-5-3-0------------|
G|-0-0-------0-5~--0-0-------5-5-3-0------------|
C|-0-0-------0-5~--0-0-------5-5-3-0------------|  x2

Verse 1 (Clean)
Bass plays and then the guitar plays this
D|--------------------------------------------------------------------------|
A|--------------------------------------------------------------------------|
F|------2-------2---------0-------0---------5---------12-7------2-----------|
C|----3---3---3---3-----2---2---2---2-----7---7-----9---------3---3---------|
G|--5-------5---------3-------3---------8--------10---------5---------------|
C|--------------------------------------------------------------------------|

Chorus - "Bury me with my guns on"
D|-----------------------------------------------------------------|
A|-------7-------------------------------------------7-------------|
F|-------7--------5-5--5-5---------------------------7-------------|
C|--0-0--5--0-0---5-5--5-5------3-3-3-3-5-5-5-5--0-0-5-0-----------|
G|--0-0-----0-0---3-3--3-3------3-3-3-3-5-5-5-5--0-0---0-----------|
C|--0-0-----0-0--------------12s3-3-3-3-5-5-5-5--0-0---0-----------|

D|------------------------------------------------|
A|-------7----------------------------------------|
F|-------7--------5-5--5-5------------------------|
C|--0-0--5--0-0---5-5--5-5------3-3-3-3-5-5-5-5---|
G|--0-0-----0-0---3-3--3-3------3-3-3-3-5-5-5-5---|
C|--0-0-----0-0--------------12s3-3-3-3-5-5-5-5---|

Repeat Intro

Bridge
D|-----------------------------------------------------------------|
A|-----------------------------------------------------------------|
F|-7-7-7-7-7-7-7-7-9-9-9-9-9-9-9-9-10-10-10-10-12-12-12-12-7-7-7-7-|
C|-7-7-7-7-7-7-7-7-9-9-9-9-9-9-9-9-10-10-10-10-12-12-12-12-7-7-7-7-|
G|-5-5-5-5-5-5-5-5-7-7-7-7-7-7-7-7--8--8--8--8-10-10-10-10-5-5-5-5-|
C|-----------------------------------------------------------------|

Chorus
D|-----------------------------------------------------------------|
A|-------7-------------------------------------------7-------------|
F|-------7--------5-5--5-5---------------------------7-------------|
C|--0-0--5--0-0---5-5--5-5------3-3-3-3-5-5-5-5--0-0-5-0-----------|
G|--0-0-----0-0---3-3--3-3------3-3-3-3-5-5-5-5--0-0---0-----------|
C|--0-0-----0-0--------------12s3-3-3-3-5-5-5-5--0-0---0-----------|

D|-----------------------------------------------------------------|
A|-------7-------------------------------------------7-------------|
F|-------7--------5-5--5-5---------------------------7-------------|
C|--0-0--5--0-0---5-5--5-5------3-3-3-3-5-5-5-5--0-0-5-0-----------|
G|--0-0-----0-0---3-3--3-3------3-3-3-3-5-5-5-5--0-0---0-----------|
C|--0-0-----0-0--------------12s3-3-3-3-5-5-5-5--0-0---0-----------|

Verse 2 - "The castle is falling down"

|--------------------------------------------------------------------------|
|--------------------------------------------------------------------------|
|--------------------------5-5-5-5-5-5-5-5---------------------------------|
|-x-xx-0-2-3-3-3-3-3-3-3-3-5-5-5-5-5-5-5-5-5-5-5-5-5-5-5-5-0-0-0-0-0-0-0-0-|
|-x-xx-0-2-3-3-3-3-3-3-3-3-3-3-3-3-3-3-3-3-5-5-5-5-5-5-5-5-0-0-0-0-0-0-0-0-|
|-x-xx-0-2-3-3-3-3-3-3-3-3-----------------5-5-5-5-5-5-5-5-0-0-0-0-0-0-0-0-|

|---------------------------------------------------------------|
|---------------------------------------------------------------|
|---------------------5-5-5-5-5-5-5-5---------------------------|
|-0-2-3-3-3-3-3-3-3-3-5-5-5-5-5-5-5-5-5-5-5-5-5-5-5-5-7-7-7-7-7-|
|-0-2-3-3-3-3-3-3-3-3-3-3-3-3-3-3-3-3-5-5-5-5-5-5-5-5-7-7-7-7-7-|
|-0-2-3-3-3-3-3-3-3-3-----------------5-5-5-5-5-5-5-5-7-7-7-7-7-|



D|----------------------------------------------|
A|--------7---------------7---------------------|
F|--------7---------------7---------------------|
C|-0-0--0s5--0-5~--0-0--0s5--5-5-3-0------------|
G|-0-0-------0-5~--0-0-------5-5-3-0------------|
C|-0-0-------0-5~--0-0-------5-5-3-0------------|

D|---------------------------------------|
A|--------7---------------7--------------|
F|--------7---------------7--------------|
C|-0-0--0s5--0-5~--0-0--0s5--0-----------|
G|-0-0-------0-5~--0-0-------0-----------|
C|-0-0-------0-5~--0-0-------0-----------|

Chorus 2 (Clean part)
D|------------------------------------------------------------------------|
A|------------------------------------------------------------------------|
F|------2-------2---------0-------0---------5---------12-7----------------|
C|----3---3---3---3-----2---2---2---2-----7---7-----9---------------------|
G|--5-------5---------3-------3---------8--------10-----------------------|
C|------------------------------------------------------------------------|

D|----------------------------------|
A|----------------------------------|
F|------2-------2-------------------|
C|----3---3---3---3-----------------|
G|--5-------5-------5---------------|
C|----------------------------------|

D|------------------------------------------------------------------------|
A|------------------------------------------------------------------------|
F|------2-------2---------0-------0---------5---------12-7------5---------|
C|----3---3---3---3-----2---2---2---2-----7---7-----9---------3---3-------|
G|--5-------5---------3-------3---------8--------10---------5-------------|
C|------------------------------------------------------------------------|

Repeat Chorus

|--------------------------------------------------------------------------|
|--------------------------------------------------------------------------|
|--------------------------5-5-5-5-5-5-5-5---------------------------------|
|-x-xx-0-2-3-3-3-3-3-3-3-3-5-5-5-5-5-5-5-5-5-5-5-5-5-5-5-5-0-0-0-0-0-0-0-0-|
|-x-xx-0-2-3-3-3-3-3-3-3-3-3-3-3-3-3-3-3-3-5-5-5-5-5-5-5-5-0-0-0-0-0-0-0-0-|
|-x-xx-0-2-3-3-3-3-3-3-3-3-----------------5-5-5-5-5-5-5-5-0-0-0-0-0-0-0-0-|

|----------------------------------------------------------------|
|----------------------------------------------------------------|
|---------------------5-5-5-5-5-5-5-5----------------------------|
|-0-2-3-3-3-3-3-3-3-3-5-5-5-5-5-5-5-5-5-5-5-5-5-5-5-5-7-7-7-7-7--|
|-0-2-3-3-3-3-3-3-3-3-3-3-3-3-3-3-3-3-5-5-5-5-5-5-5-5-7-7-7-7-7--|
|-0-2-3-3-3-3-3-3-3-3-----------------5-5-5-5-5-5-5-5-7-7-7-7-7--|


Outro

D|-----------------------------------------------------------------------|
A|--------7----------------7-----------------7----------------------7----|
F|--------7----------------7-----------------7----------------------7----|
C|-0-0--0s5-0-------0-0--0s5--0-------0-0--0s5---------------0-0--0s5-0--|
G|-0-0------0-------0-0-------0-------0-0-------x-x----------0-0------0--|
C|-0-0------0-------0-0-------0-------0-0-------x-x--5(b)----0-0------0--|
Suggest correction
What's this?
You can suggest a correction to this tab. Community and Mods will review your correction and vote to approve or reject it.
comments
We did not receive enough feedback on this tab! Please rate:
print report bad tab
1 2 3 4 5
guest
You may want to rate the tab now too:
select rating
Please do not post tabs as comments. Select "correction" instead!