Oops, an error
Loading. Please wait.

My Flame bass

2,164 views 1 this week
1 commentread comment
1 2 3 4 5
2 more votes to show rating
add to favorites
×
Save as Personal and add changes to this tab that will be seen only by you. Learn more ›
×
You can save this tab as Personal to edit and correct it or add notes. All changes will be seen only by you. Learn more »
launch autoscroll
font size
0
reset
guitar tuner
edit
Autoscroll
slow
fast
+/-
esc
set tempo
stop
Author
Difficulty
intermediate
Bobby Caldwell - My Flame
Standard Tuning: EADG
Tabbey By: RTBM

Intro part
G|---5--9--5-----5--9---------|
D|----------------------------|
A|--3-----3---7-3-----3-5-7---|
E|-----7-----7-----7----------|

Verse
G|-----------------------------------------------------|
D|-------------2h4-------------------------------------|
A|-3--5-2---------5-2---------3--5-2------2-----7/12---|
E|--3-----32-0-------5-0-23-5--3-----32-0--023-5-------|


Chorus
G|---7----------------------------4------------7-5---4-------------|
D|--------------7h9-----------------7h9-7--------------7h9---------|
A|-/5--3-----------7-55h7--5-3---2-------5-7--5-3---2-----5-5h7----|
E|------3-2/3-5----------0----3-5-----------0----3-5-----------0---|



G|--------------------------------------------------|
D|----------------------------------7---7-----------|
A|-55-----3-5--3-3--7---987-------2--765-3----3/8---|
E|---5-3-5---3--3-3--5-7---7-0-345---------1-5---0--|


Intro part

Verse

Chorus

Middel part
G|-----------------------|
D|------------5-6-7------|
A|----3/8-7---------2-5--|
E|-1-5-----7-3-4-5-------|

Chorus 

Middel part

Chorus etc..






















Suggest correction
Creating personal tab
Creating personal tab
You can edit any tab online and save it as your Personal.

You can edit, replace or remove any tab part or add personal notes – all changes will be seen only by you.

Personal tabs can be accessed anytime from any device, even offline.
Learn more »
Give kudos to tab author, rate the tab!
1 2 3 4 5
comments
print report bad tab
1 comment total.
0 reply
N4PS-Original 77 Feb 24, 2017 06:06 AM, edited at 11:06 am

I think most of the notes are right but you should write the time / tempo in a better way its really hard to read

guest
You may want to rate the tab now too:
select rating
Wanna post a correction for this tab? Suggest correction