Oops, an error
Loading. Please wait.

Little Things Chords

9,155 views 18 this week
4 commentsread comments
1 2 3 4 5
excellent!
x 8
add to favorites
launch autoscroll
font size
0
reset
transpose
0
reset
simplify chords
display chords
guitar tuner
Autoscroll
slow
fast
+/-
esc
set tempo
stop
Help us to improve Ultimate-Guitar.com Take our survey!
×
Contributor
Kraziekhat 77,747
Little Things:Bobby Goldsboro.
#13 in 1964. (Dave Berry had a #1 hit with it
in the UK in 1965.
(Goldsboro started out playing guitar for Roy Orbison.)

INTRO/RIFF: (x4)
-------------------------------------------|
-------------------------------------------|
-----0-----------0---------0---------0-----|
--2-------0-1-2-----0-1-2-----0-1-2--------|
-------2--------2---------2----------------|
-------------------------------------------|

#1.
       E               C#7         F#          B
Little things that you do, make me glad I'm in love with you,
       E               C#7         F#          B
little things that you say make me glad that I feel this way.
            A                           E
The way you smile...the way you hold my hand,
             A                        B
and when I'm down, you'll always understand.
B7
You know I love those...

#2.
       E            C#7          F#               B
Little things in my ear that you say when there's no one near,
       E               C#7       F#             B
little things that you do let me know that your love is true.
        A                         E
When we walk, you like to hold my hand,
            A                          B
and when we talk, you tell me I'm your man.

CHORUS:
B7                           G             Em
You know I love those little things that I hear,
           G                        Em
the little things you whisper in my ear.
             C                      D
I know there ain't nobody else like you,
             C                        D   B
no one could do the little things you do..ooo.

RIFF:
-------------------------------------------|
-------------------------------------------|
-----0---------0----------0---------0------|
--2------0-1-2-----0-1-2-----0-1-2---------|
-------2--------2--------2-----------------|
-------------------------------------------|

#3.
       E               C#7         F#          B
Little things that you do, make me glad I'm in love with you,
       E               C#7         F#          B
little things that you say make me glad that I feel this way.
        A                         E
When we walk, you like to hold my hand,
            A                          B
and when we talk, you tell me I'm your man.

CHORUS:
B7                           G             Em
You know I love those little things that I hear,
           G                        Em
the little things you whisper in my ear.
             C                      D
I know there ain't nobody else like you,
             C                        D   B
no one could do the little things you do..ooo.

OUTRO:RIFF:
-------------------------------------------|
-------------------------------------------|
-----0-----------0---------0---------------|
--2-------0-1-2------0-1-2-------1-2-(end)-|
-------2--------2----------2---------------|
-------------------------------------------|


A sixties smash from Kraziekhat.
comments
print report bad tab
4 comments total. Showing first comments.
0 reply
arvid_a 261 wrote on July 5 2015, 03:20 pm

You missed one note in the intro part.



e --------------------------------
B ---------------------------------
G ---0--------0--------0--------0--
D -2-----0-1-2----0-1-2----0-1-2---
A -----2--------2--------2---------
E ---------------------------------

add this little bit along with the voice part here:

You know I love those
D ---2---0----------------
A -2----------------------
E ----------5----3---5-3--

Also the G chord should be a C in these lines:

I know there ain't nobody like you
no one could do the little things you do

0 reply
Kraziekhat 77,747 wrote on July 6 2015, 04:02 am

arvid_a..thanks for the heads up. I'm getting old and I forget things. KK.
P.S. Fixed as you instructed. KK.

0 reply
arvid_a 261 wrote on July 7 2015, 07:51 pm

love your work Kraziekhat... its all about the music. Its all good man.

I want to post or [tab]
guest
You may want to rate the tab now too:
select rating
Please do not post tabs as comments. Select "correction" instead!