Oops, an error
Loading. Please wait.

Jingle Bell Rock Tab

version 1
version 1

Whole song

Interactive

205,831 views 4,908 this week
5 commentsread comments
1 2 3 4 5
x 24
add to favorites
launch autoscroll
font size
0
reset
how to read this tab
guitar tuner
Autoscroll
slow
fast
+/-
esc
set tempo
stop
Help us to improve Ultimate-Guitar.com Take our survey!
×
Author
e|--14-14-14---14-14-14---14-17--------------------------------------|
B|--15-15-15---14-14-14---15----15-17-17(b)17-15---------------------|
G|-----------------------------------------------16-14---------------|
D|-------------------------------------------------------------------|
A|-------------------------------------------------------------------|
E|---------------------------------------------------------5-3--2-0--|

e|--------------------------------------------------------------|
B|--15-15-15--14-14-14--12-14-12----12-14-12-------12-14-12-----|
G|-------------------------------11----------11-14----------12--|
D|--------------------------------------------------------------|
A|--------------------------------------------------------------|
E|--------------------------------------------------------------|

e|--------------------------------------------------------------|
B|--------------------------------12-12-14------15--------------|
G|--9-11--11-12-14---9-11-12-14-------------14------------------|
D|--------------------------------------------------------------|
A|--------------------------------------------------------------|
E|--------------------------------------------------------------|

e|--------------------------------------------------------------|
B|--14-15-17--15--12-15--17--15--15-15-14-12--------------------|
G|-------------------------------------------14-11--------------|
D|--------------------------------------------------------------|
A|--------------------------------------------------------------|
E|--------------------------------------------------------------|



************************************

| (b) bend

************************************
Suggest correction
comments
print report bad tab
5 comments total. Showing first comments.
+1 reply
jackclapton 10 Dec 15, 2008 08:29 PM

wow this is great! nothin like a good ol' christmas song! 5 stars!

+6 reply
gtr.man95 31 Dec 23, 2010 11:08 PM

At the beginning it should be


|-----------------|
|-----------------|
|-----------------|
|-----------------|
|-----------------|
|---5-3---2---0---|

Instead of

|-----------------|
|-----------------|
|-----------------|
|-----------------|
|-----------------|
|---5-3---2---1---|

Other than that, great tab(:
[tab

0 reply
Luyoo 10 Apr 04, 2013 04:57 PM

I give you 5 stars!!! Amazing!!

guest
You may want to rate the tab now too:
select rating
Wanna post a correction for this tab? Suggest correction