Oops, an error
Loading. Please wait.

Jingle Bell Rock tab

version 5
version 5

Whole song

Interactive

436 views 1 this week
no commentswrite comment
1 2 3 4 5
1 last vote to show rating
add to favorites
×
Save as Personal and add changes to this tab that will be seen only by you. Learn more ›
×
You can save this tab as Personal to edit and correct it or add notes. All changes will be seen only by you. Learn more »
launch autoscroll
font size
0
reset
how to read this tab
guitar tuner
edit
Autoscroll
slow
fast
+/-
esc
set tempo
stop
Author
Difficulty
About this tab version
It's the only complete lead tab of the song that's on the website. Was this info helpful? Yes No
                                  ~~~~~~~~~~~~~~~~~~~~~~~~~~~~~~~~~~~~~~~~
                                             Jingle Bell Rock
                                        Hank Garland with Bobby Helms                 
                                  ~~~~~~~~~~~~~~~~~~~~~~~~~~~~~~~~~~~~~~~~


I don't write 1's for double digit frets. You should be able to read it 
and it looks a lot cleaner to me.


Tabbed by: Connor O.
Tuning: Standard
Key:
#h# - hammer.
#p# - pull.
/ \ - slides, up and down respectively.
#b# - bend from normal note up to achieve bended note.
#r# - release bend from bended note to normal note.
#b  - a slight bend a.k.a. a curl or a lean.
 x  - mute.
 ~  - sustain.
 @  - substitution. Cleans up the tab while maintaining temporal relationships. 


Chords (EADGBe) in order of appearance:
D   -  xx0232
DM7 -  xx0222
A   -  x0222x 
D6  -  xx0202
F#m -  244222 or xx4222
Em  -  022000
E   -  022100
E7  -  020100
A7  -  x02020
D7  -  xx0212
G   -  355433 
Gm  -  355333
B7  -  x21202


Intro:

   D       DM7     D                               A
  0:00
           @=3/4   @=4/5   @=2b
e|-4-4-4---4-4-4---4-7-0-2-@-2-0-----------------------------------|
B|-5-5-5---@-4-4---@-5-0-2-@-2-0-2-0-------------------------------|
G|-------------------------------2-1-------------------------------|
D|-----------------------------------------------------------------|
A|-----------------------------------------------------------------|
E|---------------------------------------------------5-3---2---0---|
   *   *   *   *   *   *   *   *   *   *   *   *   *   *   *   *  


Verse 1:

   D       DM7     D6      F#m     D6      F#m     Em      A
  0:08
   J   b   J   b   J   b   rock    J   b   s   and J   b   ring
e|---------------------------0\------------------------------7-7---|
B|---------------------------2\------------------------------4-4---|
G|-----------------------------------------------------------------|
D|-----------------------------------------------------------------|
A|-----------------------------------------------------------------|
E|-----------------------------------------------------------------|
   *   *   *   *   *   *   *   *   *   *   *   *   *   *   *   *

   Em      A       Em      A       E               A
  0:15
   S     & b     u b   o f           now t j   hop has begun
e|---------------------------7-7---7\------------------------------|
B|---------------------------4-4---5\------------------------------|
G|---------------------------------6\------------------------------|
D|-----------------------------------------------------------------|
A|-----------------------------------------------------------------|
E|-----------------------------------------------------------------|
   *   *   *   *   *   *   *   *   *   *   *   *   *   *   *   *
  
   D       DM7     D6      F#m     D6      F#m     Em      A
  0:24
   J   b   J   b   J   b   rock    J   b   ch  in  J   b   time
e|---------------------------0\------------------------------7-7\--|
B|---------------------------2\------------------------------4-4\--|
G|-----------------------------------------------------------------|
D|-----------------------------------------------------------------|
A|-----------------------------------------------------------------|
E|-----------------------------------------------------------------|
   *   *   *   *   *   *   *   *   *   *   *   *   *   *   *   *  

   Em      A       Em      A       E7      A7      D       D7
  0:32 
   Dancin& p     i J   b   square    in  t frostyair           W a
e|---------------------------7-7---7\------------------------------|
B|---------------------------4-4---5\------------------------------|
G|---------------------------6-6---6\------------------------------|
D|-----------------------------------------------------------------|
A|-----------------------------------------------------------------|
E|-----------------------------------------------------------------|
   *   *   *   *   *   *   *   *   *   *   *   *   *   *   *   *


Bridge:

   G               Gm              D               D7
  0:40
   brighttime  i t right time    t r   t   n   away            J
e|-----------------------------------------------------------------|
B|-----------------------------------------------------------------|
G|-----------------------------------------------------------------|
D|-----------------------------------------------------------------|
A|-----------------------------------------------------------------|
E|-----------------------------------------------------------------|
   *   *   *   *   *   *   *   *   *   *   *   *   *   *   *   *

   G               Gm              E7              A7
  0:48
   b     time  i a   s   time        t go  g   i a 1 h     sleigh
e|-----------------------------------------------------------------|
B|-----------------------------------------------------------------|
G|-----------------------------------------------------------------|
D|-----------------------------------------------------------------|
A|-----------------------------------------------------------------|
E|-----------------------------------------------------------------|
   *   *   *   *   *   *   *   *   *   *   *   *   *   *   *   *  


Pre-Chorus:

   D       DM7     D6      F#m     D6      F#m     B7
  0:55
   G   up  J   h   p u y feet      J   a - rnd t clock
e|---------------------------0\------------------------------------------------------------|
B|---------------------------2\------------------------7---7---7---0---0---0---2---2---2---|
G|-----------------------------------------------------8---8---8---1---1---1---4---4---4---|
D|-----------------------------------------------------------------------------------------|
A|-----------------------------------------------------------------------------------------|
E|-----------------------------------------------------------------------------------------|
   *   *   *   *   *   *   *   *   *   *   *   *   *   *   ^   ^   *   ^   ^   *   ^   ^


Chorus:

   G               Gm              E7      A7      D
  1:03
   Mix &   m   i t j     feet        t   t J   b   rock
e|-----------------------------------------------------------------|
B|-2---------------------8-8-8-8-1/2-------------------2-2p0-0\8-8-|
G|-2---------------------7-7-7-7-0/1-------------------2-2p1-1\9-9-|
D|-----------------------8-8-8-8-1/2-------------------------------|
A|-----------------------------------------------------------------|
E|-----------------------------------------------------------------|
   *   *   *   *   *   *   *   *   *   *   *   *   *   *   *   *


Interlude:


  1:11

e|---------------------------0\------------------------------7-7\--|
B|---------------------------2\------------------------------4-4\--|
G|---------------------------1\------------------------------6-6\--|
D|-----------------------------------------------------------------|
A|-----------------------------------------------------------------|
E|-----------------------------------------------------------------|
   *   *   *   *   *   *   *   *   *   *   *   *   *   *   *   *

  1:19

e|---------------------------7-7---7\------------------------------------------------------|
B|---------------------------4-4---4\------------------7---7---7---0---0---0---2---2---2---|
G|---------------------------6-6---6\------------------8---8---8---1---1---1---4---4---4---|
D|-----------------------------------------------------------------------------------------|
A|-----------------------------------------------------------------------------------------|
E|-----------------------------------------------------------------------------------------|
   *   *   *   *   *   *   *   *   *   *   *   *   *   *   ^   ^   *   ^   ^   *   ^   ^


Bridge:


  1:28

e|-----------------------------------------------------------------|
B|-2---------------------------------------------------------------|
G|-2---------------------------------------------------------------|
D|-----------------------------------------------------------------|
A|-----------------------------------------------------------------|
E|-----------------------------------------------------------------|
   *   *   *   *   *   *   *   *   *   *   *   *   *   *   *   *

  1:36

e|-----------------------------------------------------------------|
B|-----------------------------------------------------------------|
G|-----------------------------------------------------------------|
D|-----------------------------------------------------------------|
A|-----------------------------------------------------------------|
E|-----------------------------------------------------------------|
   *   *   *   *   *   *   *   *   *   *   *   *   *   *   *   *


Pre-chorus:



  1:44

e|---------------------------0\------------------------------------------------------------|
B|---------------------------2\------------------------7---7---7---0---0---0---2---2---2---|
G|-----------------------------------------------------8---8---8---1---1---1---4---4---4---|
D|-----------------------------------------------------------------------------------------|
A|-----------------------------------------------------------------------------------------|
E|-----------------------------------------------------------------------------------------|
   *   *   *   *   *   *   *   *   *   *   *   *   *   *   ^   ^   *   ^   ^   *   ^   ^


Chorus:

   G               Gm              E       A       E       A 
  1:52
   Mix &   m   i t j       feet      t   t J   b     t   t J   b
e|-----------0-----------0\--0-0-----------------------------------|
B|-2---2---2-2---------1-1\--1-1-1/2-------------1/2-------------1/|
G|-2---2---2-2---------2-2\--2-2-0/1-------------0/1-------------0/|
D|-------------------------------1/2-------------1/2-------------1/|
A|-----------------------------------------------------------------|
E|-----------------------------------------------------------------|
   *   *   *   *   *   *   *   *   *   *   *   *   *   *   *   *

   E7      A7      D
  2:00
     t   t J   b   rock
e|-----------------4-4-4---4-4-4-7-------------------------------------------------|
B|/2---------------5-5-5---5-5-5-5-7b~r7---5---7-------5-------5-------------------|
G|/1-------------------------------6b~r6---4---6-------4-------4-------------------|
D|/2-----------------------------------------------------------4-------------------|
A|-------------------------------------------------------------x-------------------|
E|-------------------------------------------------------------4-------------------|
   *   *   *   *   *   *   *   *   *   ^   ^   *   ^   ^   *   *   *   *   *   *




Jingle bell, jingle bell, jingle bell rock
Jingle bells swing and jingle bells ring
Snowin' and blowin' up bushels of fun
Now the jingle hop has begun

Jingle bell, jingle bell, jingle bell rock
Jingle bells chime in jingle bell time
Dancin' and prancin' in jingle bell square
In the frosty air

What a bright time, it's the right time
To rock the night away
Jingle bell time is a swell time
To go glidin' in a one-horse sleigh

Giddy-up jingle horse, pick up your feet
Jingle around the clock
Mix and a-mingle in the jinglin' feet
That's the jingle bell rock

What a bright time, it's the right time
To rock the night away
Jingle bell time is a swell time
To go glidin' in a one-horse sleigh

Giddy-up jingle horse, pick up your feet
Jingle around the clock
Mix and a-mingle in the jinglin' feet
That's the jingle bell
That's the jingle bell
That's the jingle bell rock
Suggest correction
Creating personal tab
Creating personal tab
You can edit any tab online and save it as your Personal.

You can edit, replace or remove any tab part or add personal notes – all changes will be seen only by you.

Personal tabs can be accessed anytime from any device, even offline.
Learn more »
Give kudos to tab author, rate the tab!
1 2 3 4 5
comments
print report bad tab
guest
You may want to rate the tab now too:
select rating
Wanna post a correction for this tab? Suggest correction