Oops, an error
Loading. Please wait.

Dont Worry Be Happy Tab

version 3
version 3

Intro

  • Short fingerstyle arrangement of the whistling int... Show more

Whole song

Interactive

46 views 3 this week
no commentswrite comment
1 2 3 4 5
3 more votes to show rating
add to favorites
launch autoscroll
font size
0
reset
how to read this tab
guitar tuner
Autoscroll
slow
fast
+/-
esc
set tempo
stop
Help us to improve Ultimate-Guitar.com Take our survey!
×
Author
Difficulty
Capo
intermediate
2nd fret
About this tab version
Short fingerstyle arrangement of the whistling intro, i slap on the low E but any slap will be fine, it's a little different to the actual song but i made it this way to be more fun to play as well. Was this info helpful? Yes No
whistling Intro


************************************

| x   Dead note
|(n)  Ghost note
| h   Hammer-on
| p   Pull-off
| /   Slide up
| \   Slide down
| s   Slap
| q   arpeggio(just play faster)

************************************

                                                     |  q  |
e|---2/3------------0---------0------------------------------------------------|
B|----------3h5--3--3----3p0-----0----------------0----------------------------|
G|---------------0--0----0-------2/4\2---(2)p0h2------2p0h2---(2)p0--2----x-x--|
D|---0------0------------0-------0----------------0---0--------------0----x-x--|
A|------------------0---------0--------------------------------------0----x-x--|
E|---2/3----3-------------------------------------2------------------2---------|
     T T s  T    s         s         s            T s             s  T      s



    | q |                    | q  |
e|-----------------------------------------------------------------------------|
B|------------3p0-------0------------------------------------------------------|
G|---4\2------2---2p0h2-------2p0h2-(2)p0-2-----x-x---4--4-4p2-----------------|
D|------------0---0-----0-----0-----------0-----x-x-------------5p2-5--5-5p0-0-|
A|----------------------------------------0-----x-x----------------------------|
E|------------2---------2-----------------2------------------------------------|
          s   T   s     T  s            s T       s        s        s      s

Suggest correction
Give kudos to tab author, rate the tab!
1 2 3 4 5
comments
print report bad tab
guest
You may want to rate the tab now too:
select rating
Wanna post a correction for this tab? Suggest correction