Oops, an error
Loading. Please wait.
We have Chord Pro version of Dont Worry Be Happy.
It's the closest thing you can get to the original song and it has interactive parts. Check out the tab »
×
25,557 views 42 this week
no commentswrite comment
1 2 3 4 5
x 7
add to favorites
×
Save as Personal and add changes to this tab that will be seen only by you. Learn more ›
×
You can save this tab as Personal to edit and correct it or add notes. All changes will be seen only by you. Learn more »
launch autoscroll
font size
0
reset
guitar tuner
edit
Autoscroll
slow
fast
+/-
esc
set tempo
stop
Author
G|---4-------------------------6--------------6---------------|
D|-----4-------------------------6----------6---6-------------|
A|--------2-2--------2---4--4-------4-4---4-------4-----------|
E|--------------2h-4------------------------------------------|

G|-------9-------------9--------------------------------------|
D|---------9---------9---9------------------------------------|
A|--7-7------7-7---7-------7---2-2--------2-------------------|
E|----------------------------------2h-4----------------------|

G|-----1-1-------------|
D|---------4-----------|
A|---2-------4--2------|
E|---------------------|

Her'se a little song I wrote
You might want to sing it note for note
Don't worry be happy
In every life we have some trouble
When you worry you make it double
Don't worry, be happy......

Ain't got no place to lay your head
Somebody came and took your bed
Don't worry, be happy
The land lord say your rent is late
He may have to litigate
Don't worry, be happy
Lood at me I am happy
Don't worry, be happy
Here I give you my phone number
When you worry call me
I make you happy
Don't worry, be happy
Ain't got no cash, ain't got no style
Ain't got not girl to make you smile
But don't worry be happy
Cause when you worry
Your face will frown
And that will bring everybody down
So don't worry, be happy (now).....

There is this little song I wrote
I hope you learn it note for note
Like good little children
Don't worry, be happy
Listen to what I say
In your life expect some trouble
But when you worry
You make it double
Don't worry, be happy......
Don't worry don't do it, be happy
Put a smile on your face
Don't bring everybody down like this
Don't worry, it will soon past
Whatever it is
Don't worry, be happy


************************************

| h  Hammer-on

************************************

            
            
Suggest correction
Creating personal tab
Creating personal tab
You can edit any tab online and save it as your Personal.

You can edit, replace or remove any tab part or add personal notes – all changes will be seen only by you.

Personal tabs can be accessed anytime from any device, even offline.
Learn more »
comments
print report bad tab
guest
You may want to rate the tab now too:
select rating
Wanna post a correction for this tab? Suggest correction