Oops, an error
Loading. Please wait.

Wild One bass

version 1
version 1

Whole song

Interactive

31 views 1 this week
no commentswrite comment
1 2 3 4 5
3 more votes to show rating
add to favorites
×
Save as Personal and add changes to this tab that will be seen only by you. Learn more ›
×
You can save this tab as Personal to edit and correct it or add notes. All changes will be seen only by you. Learn more »
launch autoscroll
font size
0
reset
guitar tuner
edit
Autoscroll
slow
fast
+/-
esc
set tempo
stop
Author
Difficulty
WILD ONE (Bassline)

As recorded by Bobby Rydell
(From the 1960 Album BOBBY'S BIGGEST HITS)

Words and Music by Dave Appell, Kal Mann & Bernie Lowe

Transcribed by Slowhand


Gtr I (E A D G) - 'Double Bass'


 Intro
  Q=148
 4/4
  Gtr I
  E E Q  Q  E E   E E E E Q  Q    E E Q  Q  E E   E E E E Q  Q
|---------------|---------------|---------------|----------------||
|---------------|---------------|---------------|----------------||
|-2s3-3--3--3-3-|---------------|-2s3-3--3--3-3-|----------------||
|---------------|---3-3-3-3--3--|---------------|---3-3-3-3--3---||


   1st & 2nd Verses
    Q  Q  Q  Q    Q  Q  Q  Q    Q  Q  Q  Q    Q  Q  Q  Q
||--------------|-------------|-------------|--------------|
||o-------------|-------------|-------------|--------------|
||o-3--3--------|-3--3--2--0--|-------2--5--|-------5--5---|
||--------0--3--|-------------|-3--3--------|-3--3---------|


  Q  Q  Q  Q    Q  Q  Q  Q    Q  Q  Q  Q    Q  Q  Q  Q
|-------------|-------------|-------------|-------------|
|-------------|-------------|-------------|-------------|
|-------2--5--|-------5-----|-3--3--3--3--|-2--2--2--2--|
|-3--3--------|-3--3-----3--|-------------|-------------|


                             1.
  Q  Q  Q  Q    Q  Q  Q  Q    Q  Q  Q  Q    Q  Q  Q  Q
|-------------|-------------|-------------|-------------|
|-------------|-------------|-------------|-------------|
|-------4--7--|-------4--7--|-5--5--------|-5--5--------|
|-5--5--------|-5--5--------|-------2--5--|-------2--5--|


  Q  Q  Q  Q    Q  Q  Q  Q    q  q  q  q    q  q  q  q
|-------------|-------------|-------------|--------------||
|-------------|-------------|-------------|-------------o||
|-5--5--------|-5--5--------|-------------|-------------o||
|-------2--5--|-------2--5--|-3-----3-----|-3--3--3--3---||


  2.
  Q  Q  Q  Q    Q  Q  Q  Q    Q  Q  Q  Q
|-------------|-------------|-------------|
|-------------|-------------|-------------|
|-5--5--------|-5--5--------|-3--3--------|
|-------2--5--|-------2--5--|-------0--1--|


  Q  Q  Q  Q    E E Q  Q  E E   E E E E Q  Q
|-------------|---------------|---------------||
|-------------|---------------|---------------||
|-------------|-2s3-3--3--3-3-|---------------||
|-3--3--3--5--|---------------|---3-3-3-3--3--||


 3rd Verse
  Q  Q  Q  Q    Q  Q  Q  Q    Q  Q  Q  Q    Q  Q  Q  Q
|-------------|-------------|-------------|-------------|
|-------------|-------------|-------------|-------------|
|-3--3--------|-3--3--2--0--|-------2--5--|-------5--5--|
|-------0--3--|-------------|-3--3--------|-3--3--------|


  Q  Q  Q  Q    Q  Q  Q  Q    Q  Q  Q  Q    q  Q  Q  Q
|-------------|-------------|-------------|-------------|
|-------------|-------------|-------------|-------------|
|-------2--5--|-------5-----|-3--3--3--3--|----3--2--1--|
|-3--3--------|-3--3-----3--|-------------|-0-----------|


  Q  Q  Q  Q    Q  Q  Q  Q    Q  Q  Q  Q    Q  Q  Q  Q
|-------------|-------------|-------------|-------------|
|-------------|-------------|-------------|-------------|
|-0--0--4--7--|-0--0--4--7--|-5--5--------|-5--5--------|
|-------------|-------------|-------2--5--|-------2--5--|


  Q  Q  Q  Q    Q  Q  Q  Q    q  q  q  q    q  q  q  q
|-------------|-------------|-------------|-------------||
|-------------|-------------|-------------|-------------||
|-5--5--------|-5--5--------|-------------|-------------||
|-------2--5--|-------2--5--|-3-----3-----|-4--4--4--4--||


 4th Verse
  Q  Q  Q  Q    Q  Q  Q  Q    Q  Q  Q  Q    Q  Q  Q  Q
|-------------|-------------|-------------|-------------|
|-------------|-------------|-------------|-------------|
|-4--4--------|-4--4--3--1--|-------3--6--|-------6--6--|
|-------1--4--|-------------|-4--4--------|-4--4--------|


  Q  Q  Q  Q    Q  Q  Q  Q    Q  Q  Q  Q    Q  Q  Q  Q
|-------------|-------------|-------------|-------------|
|-------------|-------------|-------------|-------------|
|-------3--6--|-------6-----|-4--4--4--4--|-------------|
|-4--4--------|-4--4-----4--|-------------|-1--1--1--1--|


  Q  Q  Q  Q    Q  Q  Q  Q    Q  Q  Q  Q    Q  Q  Q  Q
|-------------|-------------|-------------|-------------|
|-------0--3--|-------0--3--|-1--1--------|-1--1--------|
|-1--1--------|-1--1--------|----------1--|----------1--|
|-------------|-------------|-------3-----|-------3-----|


  Q  Q  Q  Q    Q  Q  Q  Q    E E Q  Q  E E   q  Q  Q  Q
|-------------|-------------|---------------|-------------||
|-------------|-------------|---------------|-------------||
|-4--4--3--1--|-------3--6--|-3s4-4--4--4-4-|-4--4--3--2--||
|-------------|-4--4--------|---------------|-------------||


   Out-Chorus
    Q  Q  Q  Q    Q  Q  Q  Q    Q  Q  Q  Q    Q  Q  Q  Q
||--------------|-------------|-------------|--------------|
||o-------0--3--|-------0--3--|-1--1--------|-1--1---------|
||o-1--1--------|-1--1--------|----------1--|----------1---|
||--------------|-------------|-------3-----|-------3------|


                            1.
  Q  Q  Q  Q    q  Q  H      E E Q  Q  E E   q  Q  Q  Q
|-------------|------------|---------------|--------------||
|-------------|------------|---------------|-------------o||
|-4--4--3--1--|------------|-3s4-4--4--4-4-|-4--4--3--2--o||
|-------------|-4----------|---------------|--------------||


  2.
  Q  Q  Q  Q    Q  Q  Q  Q    E E Q  Q  E E   E E E E H
|-------------|-------------|---------------|--------------*|
|-------------|-------------|---------------|--------------*|
|-4--4--3--1--|-------3--6--|-3s4-4--4--4-4-|-------4------*|
|-------------|-4--4--------|---------------|---4-4--------*|


Duration Legend
---------------
W - whole; H - half; Q - quarter; E - 8th; S - 16th; T - 32nd; X - 64th; a - acciaccatura
+ - note tied to previous; . - note dotted; .. - note double dotted
Uncapitalized letters represent notes that are staccato (1/2 duration)
Irregular groupings are notated above the duration line
Duration letters will always appear directly above the note/fret number it represents the
duration for.  Duration letters with no fret number below them represent rests.  Multi-
bar rests are notated in the form Wxn, where n is the number of bars to rest for.  Low
melody durations appear below the staff

Tablature Legend
----------------
 h   - hammer-on
 p   - pull-off
 b   - bend
 pb  - pre-bend
 r   - bend release (if no number after the r, then release immediately)
 /\  - slide into or out of (from/to "nowhere")
 s   - legato slide
 S   - shift slide
  - natural harmonic
[n]  - artificial harmonic
n(n) - tapped harmonic
 ~   - vibrato
 tr  - trill
 T   - tap
 TP  - trem. picking
 PM  - palm muting
\n/  - tremolo bar dip; n = amount to dip
 \n  - tremolo bar down
 n/  - tremolo bar up
/n\  - tremolo bar inverted dip
 =   - hold bend; also acts as connecting device for hammers/pulls
 <>  - volume swell (louder/softer)
 x   - on rhythm slash represents muted slash
 o   - on rhythm slash represents single note slash

Misc Legend
-----------
 |  - bar
||  - double bar
||o - repeat start
o|| - repeat end
*|  - double bar (ending)
 :  - bar (freetime)
 $  - Segno
 &  - Coda
Tempo markers -  = BPM(8/16=s8/s16), where s8 = swing 8ths, s16 = swing 16ths



Oh wild one I'm-a gonna tame you down (tame you down)
Ah, wild one I'll get you yet (yeah yeah) you bet (yeah yeah)
You little doll all you do is play, you've got a new baby ev'ry day
But some day it's gonna be me, me and only me.

Oh oh oh oh wild one I'll make you settle down (settle down)
Ah wild one I'll clippa your wings (yeah yeah) and them things (yeah yeah)
You got the lips that I'm mad about
I got the lips that'll knock you out
C'mon wild one be wild about me.

Whoa, yeah, baby

(whoa whoa whoa)
(yeah yeah)
(wah wah wah wah)

You little doll all you do is play, you've got a new baby ev'ry day
But some day it's gonna be me, me and only me.

Oh oh oh oh wild one I'll make you settle down (settle down)
Ah wild one I'll clippa your wings (yeah yeah) and things (yeah yeah)
You got the lips that I'm mad about
I got the lips that'll knock you out
C'mon wild one be wild about me.

Whoa, yeah (wah wah wah wah)
C'mon wild one be wild about me.

--One more once--(wah wah wah wah)

Ah, c'mon wild one be wild about me.
Be wild about me.

            
            
Suggest correction
Creating personal tab
Creating personal tab
You can edit any tab online and save it as your Personal.

You can edit, replace or remove any tab part or add personal notes – all changes will be seen only by you.

Personal tabs can be accessed anytime from any device, even offline.
Learn more »
Give kudos to tab author, rate the tab!
1 2 3 4 5
comments
print report bad tab
guest
You may want to rate the tab now too:
select rating
Wanna post a correction for this tab? Suggest correction