Oops, an error
Loading. Please wait.

Christmas On Her Mind bass

19 views 1 this week
no commentswrite comment
1 2 3 4 5
3 more votes to show rating
add to favorites
×
Save as Personal and add changes to this tab that will be seen only by you. Learn more ›
×
You can save this tab as Personal to edit and correct it or add notes. All changes will be seen only by you. Learn more »
launch autoscroll
font size
0
reset
guitar tuner
edit
Autoscroll
slow
fast
+/-
esc
set tempo
stop
Author
Difficulty
Tabbed by: 6METAL6BASSIST6
E-mail: petergriffinav@gmail.com

Tuning: EADG

G|----------------------------------------------------------------|
D|7---------------7-----------7---9---------------9-----------7---|
A|--------7---------------7---------------9---------------9-------|
E|----------------------------------------------------------------|

G|----------------------------------------------------------------|
D|9-------9-------------------6---7---------------------------6---|
A|----------------7-------9-----------------------7---7---9-------|
E|----------------------------------------5-----------------------|

0:09

G|----------------------------------------------------------------|
D|7---------------7-----------7---9---------------9-----------7---|
A|--------7---------------7---------------9---------------9-------|
E|----------------------------------------------------------------|

G|--------------------------------------------------------------------------------|
D|9-------9-----------------------7-----------7-------------------------------6---|
A|----------------7-----------7-----------7-------7---------------7---7---9-------|
E|------------------------7-------------------------------7-----------------------|

G|----------------------------------------------------------------|
D|7---------------7-----------7---6---------------6-----------6---|
A|--------7---------------7---------------6---------------6-------|
E|----------------------------------------------------------------|

G|----------------------------------------------------------------|
D|9-------9-----------------------7---------------7---------------|
A|----------------7-----------7-----------7-------------------4---|
E|------------------------7---------------------------5---7-------|

0:29

G|----------------------------------------------------------------|
D|--------------------------------7---------------7---------------|
A|5---------------5-----------5-----------7-------------------4---|
E|--------5---------------5---------------------------5---7-------|

G|----------------------------------------------------------------|
D|------------------------4-----------------------7---------------|
A|5---------------5-----------------------7-----------7---4-------|
E|--------5-----------------------5---------------------------5---|

G|----------------------------------------------------------------|
D|------------4---6-------6-----------------------4-------4---6---|
A|7-------7-----------------------4-------4---7-------------------|
E|----------------------------------------------------------------|

G|--------------------------------6---------------6---------------|
D|7---------------7-----------7-----------6-------------------6---|
A|--------7---------------7---------------------------4---7-------|
E|----------------------------------------------------------------|

G|----------------------------------------------------------------|
D|9---------------9-----------7---9-------9-------------------6---|
A|--------9---------------9-----------------------7-------9-------|
E|----------------------------------------------------------------|

G|--------------------------------|
D|7---------------------------6---|
A|----------------7---7---9-------|
E|--------5-----------------------|

0:53

G|----------------------------------------------------------------|
D|7---------------7-----------7---9---------------9-----------7---|
A|--------7---------------7---------------9---------------9-------|
E|----------------------------------------------------------------|

G|--------------------------------------------------------------------------------|
D|9-------9-----------------------7-----------7-------------------------------6---|
A|----------------7-----------7-----------7-------7---------------7---7---9-------|
E|------------------------7-------------------------------7-----------------------|

G|----------------------------------------------------------------|
D|7---------------7-----------7---6---------------6-----------6---|
A|--------7---------------7---------------6---------------6-------|
E|----------------------------------------------------------------|

G|----------------------------------------------------------------|
D|9-------9-----------------------7---------------7---------------|
A|----------------7-----------7-----------7-------------------4---|
E|------------------------7---------------------------5---7-------|

1:12

G|----------------------------------------------------------------|
D|--------------------------------7---------------7---------------|
A|5---------------5-----------5-----------7-------------------4---|
E|--------5---------------5---------------------------5---7-------|

G|----------------------------------------------------------------|
D|------------------------4-----------------------7---------------|
A|5---------------5-----------5-----------7-----------7---4-------|
E|--------5-----------------------5---------------------------5---|

G|----------------------------------------------------------------|
D|------------4---6-------6-----------------------4-------4---6---|
A|7-------7-----------------------4-------4---7-------------------|
E|----------------------------------------------------------------|

G|--------------------------------6---------------6---------------|
D|7---------------7-------7---7-----------6-------------------6---|
A|--------7-------------------------------------------4---7-------|
E|----------------------------------------------------------------|

G|----------------------------------------------------------------|
D|9---------------9-----------7---9-------9-------------------6---|
A|--------9---------------9-----------------------7-------9-------|
E|----------------------------------------------------------------|

G|--------------------------------|
D|7---------------------------6---|
A|----------------7---7---9-------|
E|--------5-----------------------|

1:37

G|----------------------------------------------------------------|
D|7---------------7-----------7---9---------------9-----------7---|
A|--------7---------------7---------------9---------------9-------|
E|----------------------------------------------------------------|

G|--------------------------------------------------------------------------------|
D|9-------9-----------------------7-----------7-------------------------------6---|
A|----------------7-----------7-----------7-------7---------------7---7---9-------|
E|------------------------7-------------------------------7-----------------------|

G|----------------------------------------------------------------|
D|7---------------7-----------7---6---------------6-----------6---|
A|--------7---------------7---------------6---------------6-------|
E|----------------------------------------------------------------|

G|----------------------------------------------------------------|
D|9-------9-----------------------7---------------7---------------|
A|----------------7-----------7-----------7-------------------4---|
E|------------------------7---------------------------5---7-------|

1:56

G|----------------------------------------------------------------|
D|--------------------------------7---------------7---------------|
A|5---------------5-----------------------7-------------------4---|
E|--------5---------------5---------------------------5---7-------|

G|----------------------------------------------------------------|
D|------------------------4-----------------------7---------------|
A|5---------------5-----------------------7-----------7---4-------|
E|--------5-----------------------5---------------------------5---|

G|----------------------------------------------------------------|
D|------------4---6-------6-----------------------4-------4---6---|
A|7-------7-----------------------4-------4---7-------------------|
E|----------------------------------------------------------------|

G|--------------------------------6-------------------------------|
D|7---------------7-----------------------6-----------------------|
A|--------7---------------7-----------------------4-------4-------|
E|----------------------------------------------------------------|

2:13

G|----------------------------4---6-------------------------------|
D|------------4---6-------6-----------------------4---------------|
A|7-------7-------------------------------4---7-------7---4---7---|
E|----------------------------------------------------------------|

G|--------------------------------6-------------------------------|
D|7---------------7-----------------------6-------------------6---|
A|--------7---------------7-----------------------4-------7-------|
E|----------------------------------------------------------------|

G|----------------------------------------------------------------|
D|9---------------9-----------7---9---------------------------6---|
A|--------9---------------9---------------9-------7-------7-------|
E|--------------------------------------------7-------------------|

G|--------------------------------|
D|7---------------7---------------|
A|--------7-----------7-----------|
E|------------------------5-------|

            
            
Suggest correction
Creating personal tab
Creating personal tab
You can edit any tab online and save it as your Personal.

You can edit, replace or remove any tab part or add personal notes – all changes will be seen only by you.

Personal tabs can be accessed anytime from any device, even offline.
Learn more »
Give kudos to tab author, rate the tab!
1 2 3 4 5
comments
print report bad tab
guest
You may want to rate the tab now too:
select rating
Wanna post a correction for this tab? Suggest correction