Oops, an error
Loading. Please wait.

Earth Angel Bass Tab

10 views 1 this week
no commentswrite comment
1 2 3 4 5
3 more votes to show rating
add to favorites
launch autoscroll
font size
0
reset
guitar tuner
Autoscroll
slow
fast
+/-
esc
set tempo
stop
Help us to improve Ultimate-Guitar.com Take our survey!
×
Author
Difficulty
novice
Tabbed by: 6METAL6BASSIST6
E-mail: petergriffinav@gmail.com

Tuning: EADG

G|------------|
D|------------|
A|3---5---7---|
E|------------|

G|------------------------------------------------------------------------------------------------|
D|--------------------------------------------7---5-------------------5---------------------------| x2
A|8-------------------7---5-----------------------------------------------3-----------3---5---7---|
E|------------------------------------------------------------------------------------------------|

0:15

G|------------------------------------------------------------------------------------------------|
D|--------------------------------------------7---5-------------------5---------------------------| x7
A|8-------------------7---5-----------------------------------------------3-----------3---5---7---|
E|------------------------------------------------------------------------------------------------|

G|------------------------------------------------------------------------------------------------|
D|----------------5---7---8-----------8---7---5-------------------------------------------5---7---|
A|8-----------8-----------------------------------8-----------------------8-----------8-----------|
E|------------------------------------------------------------------------------------------------|

1:12

G|------------------------------------------------------------------------------------------------|
D|8-----------------------8-----------------------------------------------------------------------|
A|------------------------------------------------8-----------------------8-----------------------|
E|------------------------------------------------------------------------------------------------|

G|------------------------------------------------5-----------------------------------------------|
D|5-----------------------5-----------------------------------8-----------7-----------5-----------|
A|------------------------------------------------------------------------------------------------|
E|------------------------------------------------------------------------------------------------|

1:40

G|------------------------------------------------------------------------------------------------|
D|--------------------------------------------7---5-------------------5---------------------------| x3
A|8-------------------7---5-----------------------------------------------3-----------3---5---7---|
E|------------------------------------------------------------------------------------------------|

G|------------------------------------------------------------------------------------------------|
D|----------------5---7---8-----------8---7---5---------------------------------------------------|
A|8-----------8-----------------------------------8-------3---5-------3---------------------------|
E|----------------------------------------------------------------5-------1-----------------------|
Suggest correction
Give kudos to tab author, rate the tab!
1 2 3 4 5
comments
print report bad tab
guest
You may want to rate the tab now too:
select rating
Wanna post a correction for this tab? Suggest correction