Oops, an error
Loading. Please wait.

Mr Lonely Bass Tab

10 views 1 this week
no commentswrite comment
1 2 3 4 5
3 more votes to show rating
add to favorites
launch autoscroll
font size
0
reset
guitar tuner
Autoscroll
slow
fast
+/-
esc
set tempo
stop
Help us to improve Ultimate-Guitar.com Take our survey!
×
Author
Difficulty
[Intro]
G|---------------------------------------|
D|---------6-------7--------9------------|
A|-7-----------6-------7-------------4-6-|
E|-----7------------------------7--7-----|


[Verse]: "Lonely, I'm Mr. Lonely..."
G|-----------------------------------------------------------------------------|
D|---------6--------7-------9--------------------6-------7-------9-------------|
A|-7-----------6--------7------------4-6-7-----------6-------7-------------4-5-|
E|-----7------------------------7--7---------7------------------------7--7-----|


[Bridge]: "Now I'm a soldier, a lonely soldier..."
G|-----------------------------------------------------------------------|
D|------------------7-------7---------------6-------7--------------------|
A|-7-------7---7--------7-------9---7-----------6-------9---7--------5-7-|
E|-----7--------------------------------7-----------------------8--8-----|


[Verse 2]: "Letters, never a letter..."
G|------------------------------------------------------------------------------|
D|---------7-------8-------10---------------------7-------8-------10------------|
A|-8-----------7-------8--------------5-7-8-----------7-------8-------------5-7-|
E|-----8------------------------8---8---------8------------------------8--8-----|


[Bridge]: "Now I'm a soldier, a lonely soldier..."
G|--------------------------------------------------------------------------|
D|-----------------8-------8----------------7-------8-----------------------|
A|-8-------8---8-------8-------10---8-----------7-------------------------8-|
E|-----8--------------------------------8-----------------------------------|
Suggest correction
Give kudos to tab author, rate the tab!
1 2 3 4 5
comments
print report bad tab
guest
You may want to rate the tab now too:
select rating
Wanna post a correction for this tab? Suggest correction