Oops, an error
Loading. Please wait.

Silhouettes Bass Tab

7 views 1 this week
no commentswrite comment
1 2 3 4 5
3 more votes to show rating
add to favorites
launch autoscroll
font size
0
reset
guitar tuner
Autoscroll
slow
fast
+/-
esc
set tempo
stop
Help us to improve Ultimate-Guitar.com Take our survey!
×
Author
Difficulty
novice
Tabbed by: 6METAL6BASSIST6
E-mail: petergriffinav@gmail.com

Tuning: EADG

G|------------------------------------------------------------------------------------------------|
D|5-------------------4---2-----------------------------------------------------------------------| x2
A|--------------------------------------------5---3-----------------------5-----------5-----------|
E|------------------------------------------------------------------------------------------------|

0:14

G|------------------------------------------------------------------------------------------------|
D|5-------------------4---2-----------------------------------------------------------------------| x3
A|--------------------------------------------5---3-----------------------5-----------5-----------|
E|------------------------------------------------------------------------------------------------|

G|------------------------------------------------------------------------------------------------|
D|5-------------------4---2-----------------------------------------------------------------------|
A|--------------------------------------------5---3-------------------3---5-----------5-----------|
E|------------------------------------------------------------------------------------------------|

0:39

G|------------------------------------------------------------------------------------------------|
D|5-------------------4---2-----------------------------------------------------------------------| x6
A|--------------------------------------------5---3-------------------3---5-----------5-----------|
E|------------------------------------------------------------------------------------------------|

1:18

G|------------------------7-------------------7---------------------------------------------------|
D|5-------------------9---------------9-----------------------------------5-------------------7---|
A|------------------------------------------------3-----------5-------7---------------7-----------|
E|------------------------------------------------------------------------------------------------|

G|------------------------7-------------------7---------------------------------------------------|
D|5-----------5-------9---------------9-------------------------------4---7-----------4-------7---|
A|------------------------------------------------5-----------5-----------------------------------|
E|------------------------------------------------------------------------------------------------|

1:31

G|------------------------------------------------------------------------------------------------|
D|5-------------------4---2-----------------------------------------------------------------------| x4
A|--------------------------------------------5---3-------------------3---5-----------5-----------|
E|------------------------------------------------------------------------------------------------|

G|------------------------------------------------------------------------------------------------|
D|5---5---5---5---5---5---5---5---5---5---5---5-------------------------------------------3---5---|
A|------------------------------------------------6---6---6---6---6---6---6---6---6---6-----------|
E|------------------------------------------------------------------------------------------------|

2:03

G|------------------------------------------------------------------------------------------------|
D|6-------------------5---3-----------------------------------------------------------------------| x6
A|--------------------------------------------6---4-------------------4---6-----------6-----------|
E|------------------------------------------------------------------------------------------------|

G|------------------------------------------------------------------------------------------------|
D|6-------------------------------------------------------------------------------------------6---|
A|------------------------------------------------------------------------------------------------|
E|------------------------------------------------------------------------------------------------|
Suggest correction
Give kudos to tab author, rate the tab!
1 2 3 4 5
comments
print report bad tab
guest
You may want to rate the tab now too:
select rating
Wanna post a correction for this tab? Suggest correction