Oops, an error
Loading. Please wait.

Beaujolais chords

version 2
version 2

Whole song

by BoDeans
13 views 3 this week
no commentswrite comment
1 2 3 4 5
3 more votes to show rating
add to favorites
×
Save as Personal and add changes to this tab that will be seen only by you. Learn more ›
×
You can save this tab as Personal to edit and correct it or add notes. All changes will be seen only by you. Learn more »
launch autoscroll
font size
0
reset
transpose
0
reset
display chords
guitar tuner
edit
Autoscroll
slow
fast
+/-
esc
set tempo
stop
Strumming
There is no strumming pattern for this song yet. and get +5 IQ
Artist: The BoDeans
Song: Beaujolais
TAB by: Marty LeTendre
Ver 2
mletendr1@yahoo.com

[Strum Pattern: P vv]
Pick bass string once at every Chord, then 2 down stroke strumms
   G         G         G         G         G         G         G         D         D
e|----3--3------3--3------3--3------3--3------3--3------3--3------3--3------2--2------2--2-|
B|----0--0------0--0------0--0------0--0------0--0------0--0------0--0------3--3------3--3-|
G|----0--0------0--0------0--0------0--0------0--0------0--0------0--0------2--2------2--2-|
D|----0--0------0--0------0--0------0--0------0--0------0--0------0--0---0---------0-------|
A|-----------------------------------------------------------------------------------------|
E|-3---------3---------3---------3---------3---------3---------3---------------------------|

[Intro] 
G          G

[Verse]
         G             G          G       G            G          G   D    D
Well the nights coming on, like a soulful song, like a tuned down mel-ody
       D              D              D         D            D           D       G      G
Broken hearts, corner bar, wondering where you are. Soaking dreams, and old mem-ories
         G            G           G       G         G          G          D     D
Well you begged me to stay, still I ran a-way, too young, too foolish to see
      D         D     D           D               D      D           G    G
There aint very much, more than a touch, than the love   you gave to me
       G            G            G          G            G              G       D      D
So you bring on the night.  Baby I’ll be al-right,     I promise not to feel no pain.
     D           D              D       D                D            D          G      G
No I won’t say a word, bout the lessons learned,   Beauj-olais in the Sept-ember rain

[Chorus]
    G   G       G   G        G             G         D    D
Beaujolais, Beaujolais, Beaujola   in the September rain,
    D    D        D             D        D            D              D         G       G
I’m lost thinking of    Our one night of love.  Beaujolais,   in the September rain,

[Instrumental]
G D

[Bridge]
        G        G          G           G          G         G          D     D
Now the Years go by, with a blink of an eye.  Memories, they stay the same
      D           D        D           D               D              D         G       G
And I think about you, the whole night through,  Beaujolais,   in the September rain,

[Chorus]
    G   G       G   G        G             G         D    D
Beaujolais, Beaujolais, Beaujola   in the September rain,
    D    D        D             D        D            D              D         G       G
I’m lost thinking of    Our one night of love.  Beaujolais,   in the September rain,

[Chorus]
    G   G       G   G        G             G         D    D
Beaujolais, Beaujolais, Beaujola   in the September rain,
    D    D        D             D        D            D              D         G       G
I’m lost thinking of    Our one night of love.  Beaujolais,   in the September rain,

[Instrumental]
G D (x2)

[Outro]
 G         G         G         G         G         G         G         D         D
e|----3--3------3--3------3--3------3--3------3--3------3--3------3--3------2--2------2--2-|
B|----0--0------0--0------0--0------0--0------0--0------0--0------0--0------3--3------3--3-|
G|----0--0------0--0------0--0------0--0------0--0------0--0------0--0------2--2------2--2-|
D|----0--0------0--0------0--0------0--0------0--0------0--0------0--0---0---------0-------|
A|-----------------------------------------------------------------------------------------|
E|-3---------3---------3---------3---------3---------3---------3---------------------------|
Suggest correction
Creating personal tab
Creating personal tab
You can edit any tab online and save it as your Personal.

You can edit, replace or remove any tab part or add personal notes – all changes will be seen only by you.

Personal tabs can be accessed anytime from any device, even offline.
Learn more »
Give kudos to tab author, rate the tab!
1 2 3 4 5
comments
print report bad tab
guest
You may want to rate the tab now too:
select rating
Wanna post a correction for this tab? Suggest correction