Oops, an error
Loading. Please wait.

90 Grad Tab

2,192 views 1 this week
no commentswrite comment
1 2 3 4 5
please rate
add to favorites
launch autoscroll
font size
0
reset
how to read this tab
guitar tuner
Tab Pro tools
  • play this tab
  • loop segment
  • change instrument
  • show fretboard
  • metronome
×
Best way to learn
"90 Grad"
Autoscroll
slow
fast
+/-
esc
set tempo
stop
Contributor
Bodo Wartke - 90 Grad Tab fьr dieses Arrangement:

http://www.youtube.com/watch?v=yUDoJdF-8Rk

Viel SpaЯ beim Lernen und Spielen fьr die Mдdels ;)
euer Benny

                      ...Arm...      ...weich und warm...        noch nie...
                                        |--3--|
     Q    H.              Q    H        E  E  E     Q    Q    E.  S E  E
E||--------------------|-------------------------|------------------------|
B||--------------------|-------4--------L-----4--|-------4----------4-----|
G||--------------------|-------5--------L-----5--|-------3----------3-----|
D||--------------------|-------5--------L-----5--|-------5----------5-----|
A||--------------------|--3-------------L--5-----|--6---------L---6-------|
E||--------------------|-------------------------|------------------------|


gleichbares.. Kaschmir fьr weich...          ...den Duft          ...ja es
                |--3--|                                            |--3--|
  Q    H        E  E  E     Q    E  E  Q    E  E     Q    H        E  E  E
-------1--------L--1-----|------------------------|-------------------------|
-------1--------L--1-----|-------4----------3-----|-------4--------L-----4--|
-------1--------L--1-----|-------5----------3-----|-------5--------L-----5--|
--3-------------3-----3--|-------5----------3-----|-------5--------L-----5--|
-------------------------|-------------1----------|--3-------------L--5-----|
-------------------------|--4-------4-------------|-------------------------|


 duftet so...   ...gerate geradezu..     ...dein betцrendes...      ...zu den
  Q    Q    E.  S E  E     Q    Q    E.  S E  E     Q    E  E  Q    E  S. T
------------------------|-------1----------1-----|--------------------------|
-------4----------4-----|-------1----------1-----|-------4----------3-------|
-------3----------3-----|-------1----------1-----|-------5----------3-----5-|
-------5----------5-----|--3---------L---3-L--3--|-------5----------3--5----|
--6---------L---6-------|------------------------|-------------1------------|
------------------------|------------------------|--4-------4---------------|


 Ohr'n...    ...aus meinen Por'n...        ...uns're Kцrper...        ...und zu
                 |--3--|
  E.  S H        E  E  E     E.  S Q    E.  S Q       E.  S E  E  E.  S E  E
--------------------------|------------------------|--------1-----------1-----|
--------4-----------4-----|--------4----------4----|--------1-----------1-----|
--------5-----------5-----|--------3----------3----|--------1-----------1-----|
--------5-----------------|--------5----------5----|------3-L--3--L---3-L--3--|
--3---3-L--------3--5--3--|--6---6-L----L---6-L----|--------------------------|
--------------------------|------------------------|--1-----------------------|


 wiegen...   ...wir sind       vollkommen...   ...man nonverbale......Grazie und
  Q    E  S S Q    E  S S    E  E  Q    Q    S E  S    E.  S Q    E.  S E  E
--------------------------|-------------------------|-------------------------|
-------4----4------3------|--4-----------------4----|--------4----------4-----|
-------5----5------3----5-|--5-----------------5----|--------3----------3-----|
-------5----5------3--5---|--5-----------------5----|--------5----------5-----|
--------------1-----------|--3---------------5----5-|--6---6-L----L---6-L--6--|
--4-------4---------------|-------------------------|-------------------------|


 Anmut...               wes- wegen zugegeben...         Er- regung... wir sind...      
inne, um dich
  E.  S E  E  E.  S E  E     E  E  Q    H           H        Q    E  E     Q    E  E  Q  
  Q
--------1-----------1-----|----------------------|----------------------|-----------------------|
--------1-----------1-----|--4-------------------|-----------3----3-----|--4----4-----4---------|
--------1-----------1-----|--5-------------------|-----------3----3-----|--5----5-----5---------|
------3-L--3--L---3-L--3--|--5-------------------|-----------3----3-----|--5----5-----5---------|
--------------------------|----------------------|-----------1-------3--|-----------------------|
--1-----------------------|--4-------------------|----------------------|--4-------4--4---------|


 anzuseh'n...          so wie...             Augen-blick...            ver-
  Q    E  E  Q    E  E     Q    E  E  Q    E  E     Q    E  E  Q    E  E
--3----L-----L----L-----|------------------------|--1----1-----1----1-----|
--3----3-----3----3-----|--4----4-----4----4-----|--3----3-----3----3-----|
--3----3-----3----3-----|--5----5-----5----5-----|--3----3-----4----4-----|
--1-------1--1-------1--|--5----5-----5----5-----|------------------------|
------------------------|------------------------|--1-------1--2-------2--|
------------------------|--4-------4--5-------5--|------------------------|


 weilen...                                   ...wie mit dir...     ...zelebrier mit
  Q    E  E  E  E  E  S. T    E.  S E  E  E  E  S E.     E.  S E  E  Q    Q
--3----L-----3-----L-------|--3-----L-----3-------3---|--1-----1----------1----|
--3----3-----3-----3-------|--3-----3-----3-------2---|--3-----3----------3----|
--5----5-----5-----5-------|--4-----4-----4-------2---|--2-----2----------2----|
-------5-----------5-----5-|--------5-----------------|--0---0-L--0--L----2----|
----------------------5----|----------------------0---|------------------------|
--3-------3--L--3----------|--3---3-L--3--3-----------|------------------------|


mir...           ...sich genau...              ...die Frau...          ...wie be-
  E.  S Q    E.  S E.  S    E.  S E  E  E  E  E  S S    E.  S E  S S Q    S E.
--1-----1----------1-----|--3-----3-----------3------|--1-----1------3----L-3---|
--1-----1----------1-----|--3-----3-----------3------|--3-----3------5----L-2---|
--2-----2----------2-----|--3-----3-----------3------|--2-----2------5----L-2---|
------3-L----L---3-L---3-|------5-L--5--L--5-----5---|--------------------------|
-------------------------|---------------------------|--1---1-L--0-1-3----L-0---|
--1----------------------|--3-----------------3----3-|--------------------------|


freit               ...zu zweit...             ...ge-setzt...        ...wir so wie
                                                                         |--3--|
  E.  S E  E  E  E  Q       E.  S E  E  E.  S E.  S    E.  S E  E  E.  S E  E  E
--1-----1-----------1----|--1-----1-----------1-----|--3-----3-----------3--------|
--3-----3-----------3----|--1-----1-----------1-----|--3-----3-----------3--------|
--2-----2-----------2----|--2-----2-----------2-----|--3-----3-----------3--------|
--0---0-L--0--L--0--2----|------3-L--3--L---3-L---3-|------5-L--5--L---5----5-----|
-------------------------|--------------------------|-----------------------------|
-------------------------|--1-----------------------|--3-----------------3-----3--|


jetzt       miteinander Tanzen
  Q.     E  H           E  E  Q    E
--1------3--L--------|----------------|
--3------5--L--------|--5--6--L----L--|
--2------3--L--------|--5--L----------|
---------------------|--7--L----------|
--1------3--L--------|----------------|
---------------------|----------------|


Solo
 S S S S S  S     E.  S S S S S S S S S S S S S
---------------|-------------------------------5-|
--8-6-8-8-6-10-|---L-----6-----------8-6-8-8-6---|
--6-----6----7-|---L-----7-7-5-7-L---7---7-7---5-|
--7-----7----7-|---L-----7-----7-L-7-----7-7---7-|
---------------|-------5-------5-----------------|
---------------|---------------------------------|

                                                         |--3--|
  E.  S S S S S S S S S S S S S    E.  S S S S S S S S S E  E  E
--L---------------------------5-|--L-----------------3-1-3--3--1--|
--------6-----------8-6-8-8-6---|--------6-----3-L---3---3--3-----|
--L-------7-5-7-L---7---7-7---7-|--L-----0-7-5-3-L-0-----0--0-----|
--L-----7-----7-L-7-----7-7---8-|--L---0-8-----5-L----------------|
------8-------8-L---------------|---------------------------------|
--------------------------------|---------------------------------|


     |-3-|                 |--3--|                 |--3--|        |--3--|
  E  S S S S S S S S S S S E  E  E      E   S T T  E  E  E  E.  S E  E  E
--5--5-----8-5---5-L----------------|--------------------------------0--1--|
--3------6-----8-5-L-8-8-6-8--8--6--|--10---L---------------------3--------|
--3----7---------5-L----------6-----|---7---L-----10--9--7-----------0--2--|
------------------------------7-----|---7---L---7-----------7---7-3--------|
------------------------------------|---------8----------------------------|
------------------------------------|--------------------------------------|


        |--3--|        |--3--|           |--3--|        |--3--|
  E.  S E  E  E  E.  S E  E  E     E.  S E  E  E  E.  S E  E  E
--5---5-5--3--1-----------------|-----------0--1-----------0--1--|
--6-----6--5--3--3---3-3--5--6--|--3---3-3--1--3--3---3-3--1--3--|
--------------------------------|--3-----3--------3-----3--------|
--7-----7--5--3--3-----3--5--7--|--0-----0--2--3--0-----0--2--3--|
-----------------5-----5--7--8--|--------------------------------|
--------------------------------|--------------------------------|


  |--3--|  |--3--|  |--3--|  |---3--|                      |---3---|             |--3--|
  E  E  E  E  E  E  E  E  E  E  E   E      E   T  T  T  T  E   E   E   E   S T T E  E  E
-----0--1--3--1--0--0--1--3--5--6---9--|--10---L-10-------13--12--10-------------5--------|
--3--1--3--5--3--1--1--3--5--6---------|--10---L-------10-------------10---L---6----8--6--|
--3------------------------------------|--10---L----10------------------------------------|
--0--2--3--5--3--2--2--3--5--7--8--11--|---0---L-----------------------------7------------|
---------------------------------------|--------------------------------------------------|
---------------------------------------|--------------------------------------------------|


  |-3-| |-3-| |-3-| |-3-|       |--3--|     |-3-| |-3-| |-3-| |-3-|       |--3--|
  S S S S S S S S S S S S E.  S E  E  E     S S S S S S S S S S S S E.  S E  E  E
--5-----------5--------------------------|--6---5-------6---5----------------------|
------8---6-------8---6------------5--6--|----------8-----------8---------------6--|
--5-----------5-----------7-----7--------|--7-----------7-----------7-----7--9-----|
----7---7---7---7---7---7-----7----7-----|----8---8---8---8---8---8-----8----8-----|
-----------------------------------------|-----------------------------------------|
-----------------------------------------|-----------------------------------------|


    |--3--|  |--3--|  |--3--|  |--3--|
    E  E  E  E  E  E  E  E  E  E  E  E
----6--5--3--1--0-----------------------|
-------------------3--1-----------------|
--0g7-----3--3-----------3--2--0--------|
----------------------2-----------3--2--|
----------------------------------------|
----------------------------------------|


   |-3-| |--3--|  |--3--| |-3-|  |-3-| |-3-|  |--3--| |-3-|
   S S S S  S  S  S  S  S S S S  S S S S S S  S  S  S S S S
-----------------10----------------------------10-------------|
--------------10----10----------------------10----10----------|
---------7-10----------10-7------------7-10----------10-7-----|
-------7--------------------7--------7--------------------7---|
-----8------------------------8----8------------------------8-|
--10----------------------------10----------------------------|


  |-3-|  |--3--| |--3--|  |-3-| |-3-|  |--3--| |--3--|  |-3-|
  S S S  S  S  S S  S  S  S S S S S S  S  S  S S  S  S  S S S
-----------------8-----------------------------8--------------|
--------------10---10-----------------------10---10-----------|
-----------10---------10-----------------10---------10--------|
------7-10---------------10-7-------7-10---------------10-7---|
----8-------------------------8---8-------------------------8-|
--8-----------------------------8-----------------------------|


  |-3-| |-3-|  |-3-| |-3-| |-3-| |-3-|  |-3-| |-3-|
  S S S S S S  S S S S S S S S S S S S  S S S S S S
------------6-10-6-------------------6-10-6---------|
----------8--------8---------------8--------8-------|
----0---7------------7---0---0---7------------7---0-|
--0---8----------------8---0---8----------------8---|
----------------------------------------------------|
----------------------------------------------------|


  |-3-| |-3-|  |-3-| |-3-| |-3-| |-3-| |---3---|
  S S S S S S  S S S S S S S S S S S S E   E   E
------------6-10-6---------------------9--10--12--|
----------6--------6---------------5-8------------|
--------7------------7---------0-5-----6---7---9--|
--0---8----------------8--------------------------|
----8--------------------7---7--------------------|
---------------------------8----------------------|


                |---3---|                |---3---|
   E   S  T  T  E   E   E   E   S  T  T  E   E   E
--13---L-------13--12--10---------------13--12--10--|
--10---L----10-------------10---L----10-------------|
--10---L-10-----------------------10----------------|
----------------------------------------------------|
----------------------------------------------------|
----------------------------------------------------|


                                                           ...wie befreit...
                |---3---|   |---3---|   |---3---|
   E   S  T  T  E   E   E   E   E   E   E   E   E      H           W
---------------13--12--10--13--12--10--13--12--10--|---L--------|--5----------------|
--10---L----10-------------------------------------|------------|--6----------------|
---------10----------------------------------------|------------|--7----------------|
---------------------------------------------------|------------|--7----------------|
---------------------------------------------------|------------|--5----------------|
---------------------------------------------------|------------|-------------------|



 zweit...      ...gesetzt...     ...wie jetzt...
  W                   W                   Q.     E  Q    E  T  T  T  T
--5----------------|--6----------------|--5------3--L----L--L----10-12-|
--6----------------|--8----------------|--3------1--L----L--L-10-------|
--5----------------|--7----------------|-------------------------------|
--7----------------|--5----------------|--3------2--L----L-------------|
--8----------------|--5----------------|--5------3--L----L-------------|
-------------------|-------------------|-------------------------------|


   H         S  S  S  S  S S S S    S S S S S E.  H
--13---------L-12-10-------------|----------------1--------||
---------------------10----------|----------------3--------||
------------------------10-9-7---|----------------2--------||
-------------------------------7-|----------------0--------||
---------------------------------|--8-7-5-0----------------||
---------------------------------|----------1-0------------||




Duration Legend
---------------
W - whole
H - half
Q - quarter
E - 8th
S - 16th
T - 32nd
X - 64th
. - note dotted
|-n-|  - n-tuplets


Tablature Legend
----------------
L - tied note
x - dead note
g - grace note
(n) - ghost note
> - accentuded note
NH - natural harmonic
AH - artificial harmonic
TH - tapped harmonic
SH - semi harmonic
PH - pitch harmonic
h - hammer on
p - pull off
b - bend
br - bendRelease
pb - preBend
pbr - preBendRelease
brb - bendReleaseBend
\n/ - tremolo bar dip
\n - tremolo bar dive
-/n - tremolo bar Release up
/n\ - tremolo bar inverted dip
/n - tremolo bar return
-\n - tremolo bar Release down
S - shift slide
s - legato slide
/ -  slide into from below or out of upwards
\ -  slide into from above or out of downwards
~ - vibrato
W - wide vibrato
tr - trill
TP - tremolo picking
T - tapping
S - slap
P - pop
< - fade in
^ - brush up
v - brush down
comments
We did not receive enough feedback on this tab! Please rate:
print report bad tab
1 2 3 4 5
I want to post or [tab]
guest
You may want to rate the tab now too:
select rating
Please do not post tabs as comments. Select "correction" instead!