Oops, an error
Loading. Please wait.

An Dich Tab

version 2
version 2

Whole song

723 views 1 this week
no commentswrite comment
1 2 3 4 5
please rate
add to favorites
launch autoscroll
font size
0
reset
how to read this tab
guitar tuner
Autoscroll
slow
fast
+/-
esc
set tempo
stop
Help us to improve Ultimate-Guitar.com Take our survey!
×
Author
Bodo Wartke - An Dich Tabs für dieses Arrangement:

http://www.youtube.com/watch?v=CtLqVBjcv5I

Der Chorus besteht aus 3 mal dem gleiche Riff plus einer
letzten Wiederholung, deren Ende etwas variiert ist und jeweils
den Übergang zum nächsten Vers bildet.

Viel Spaß beim Lernen, euer Benny


Vers 1
                         Q    H.              Q    H.              Q    H.            
E||-------------------|-------1------------|-------1------------|-------1------------|
B||-------------------|-------3------------|-------3------------|-------3------------|
G||-------------------|-------2------------|-------2------------|-------2------------|
D||-------------------|--0-----------------|--------------------|--------------------|
A||-------------------|--------------------|--3-----------------|--2-----------------|
E||-------------------|--------------------|--------------------|--------------------|


  Q    Q    E  E  S E.     Q    Q    E  E  S S E     Q    Q    E  E  S S S S  
-------0----------------|-------1----1-----1------|-------1----1-----1-----1-|
-------2----------------|-------3----3-----3------|-------3----3-----3-----3-|
-------0----------------|-------2----2-----2------|-------2----2-----2-----2-|
------------------------|--0---------0--0---------|--------------------------|
--0---------L--3----4---|--------------------4----|--3---------3--3----1-----|
------------------------|-------------------------|--------------------------|


                                               Bridge
  Q    Q    E  E  S S E     Q    H.              Q    E  E  Q    S S E   
-------1----1-----1------|-------0------------|-------6----------3------|
-------3----3-----3------|-------2------------|-------3----------5------|
-------2----2-----2------|-------0------------|-------3----------3------|
-------------------------|--------------------|-------------------------|
--2---------L--2----1----|--0-----------------|-------------3----L-3----|
-------------------------|--------------------|--3----------------------|


  Q    S S E  Q    H.            
-------0-----------1------------|
-------1-----------3------------|
-------2-----------2------------|
--------------------------------|
--------------1----1------------|
--1----L-1----------------------|



Chorus 1
  Q    E  S S E  E  E  S S    Q    E  S S Q    E  E   
-------3----3-------3----3-|-------0----0------1-----|
-------3----3-------3----3-|-------2----2------3-----|
-------3----3-------3----3-|-------0----0------2-----|  4x
---------------------------|--------------0-------0--|
--1-------1----------------|--0-------0--------------|
--------------0--0--3--4---|-------------------------|

Bei der 4. Wiederholung als letzten Takt:
  Q    E  E  E  E  E  S S  
-------0------------------|
-------2------------------|
-------0------------------|
--------------------------|
--0-------0-----0--3--4h5-|
--------------------------|



Vers 2
  Q    Q    E  E  E  S S    E  E  E  S S E  E  E  S S    E  E  E  S S E  E  E  E   
-------1----L-----1----1-|--------1----1-------1----1-|--------1----1-------1-----|
-------3----L-----3----3-|--------3----3-------3----3-|--------3----3-------3-----|
-------2----L-----2----2-|--------2----2-------2----2-|--------2----2-------2-----|
--0------------0-----0---|----------------------------|---------------------------|
-------------------------|--3--3-----3---3--3-----3---|--2--2-----2---2--2--2--1--|
-------------------------|----------------------------|---------------------------|


  E  E  Q    E  E  S S S S    E  E  E  S S E  E  E  S S    E  E  E  S S E  E  E  S S  
--0-------------1----0-----|--------1----1-------1----1-|--------1----1-------1----1-|
--2-------------2--2-----3-|--------3----3-------3----3-|--------3----3-------3----3-|
--0-------------0----------|--------2----2-------2----2-|--------2----2-------2----2-|
---------------------------|--0--0-----0---0--0-----0---|----------------------------|
--0-------------0--3---4---|----------------------------|--3--3-----3---3--3-----3---|
---------------------------|----------------------------|----------------------------|

                                                        Bridge
  E  E  E  S S E  E  E  S S    Q    E  S S E  E  E  E     Q    E  S S Q    E  S S  
--------1----1-------1----1-|-------0----0-------0-----|-------6----6------3----3-|
--------3----3-------3----3-|-------2----2-------2-----|-------3----3------5----5-|
--------2----2-------2----2-|-------0----0-------0-----|-------3----3------3----3-|
----------------------------|--------------------------|--------------------------|
--2--2-----2---2--2--2--2---|--0-------0---0--0--0-----|--------------3-------3---|
----------------------------|-----------------------4--|--3-------3---------------|


  Q    E  S S Q    H.            
-------0----0------1------------|
-------1----1------3------------|
-------2----2------2------------|
--------------------------------|
--------------1-----------------|
--1-------1---------------------|



Chorus 2 letzter Takt
  Q    E  S S E  E  E  E   
-------0----0-------1-----|
-------2----2-------3-----|
-------0----0-------2-----|
--------------0--0--------|
--0-------0------------0--|
--------------------------|


Vers 3
  Q    E  E  E  E  S S S S    Q    E  E  E  E  S S S S    E  E  E  E  H         
-------1-----------1-----1-|-------1-----------1-----1-|--------1--------------|
-------3-----------3-----3-|-------3-----------3-----3-|--------3--------------|
-------2-----------2-----2-|-------2-----------2-----2-|--------2--------------|
--0----0--------0--L-------|---------------------------|-----------------------|
---------------------4-----|--3-------------3--L-1-----|--2--2-----2-----------|
---------------------------|---------------------------|-----------------------|


  Q    E  S S S E.  E  S S    E  E  E  E  E  E  S E  S    E  E  E  E  E  E  S E  S  
-------1----1---1---0------|--------1-----------1----1-|--------1-----------1----1-|
-------3----3---2--------3-|--------3-----------3----3-|--------3-----------3----3-|
-------2----2---0----------|--------2-----------2----2-|--------2-----------2----2-|
---------------------------|--0--0-----------0--L------|---------------------------|
--1-------1---0-----3--4---|----------------------4----|--3--3-----3-----3--L-1----|
---------------------------|---------------------------|---------------------------|


                                                    Bridge
  E  E  E  E  E  E  S E  S    E  E  E  E  H           Q    E  S S Q    E  S S  
--------1-----------1----1-|--------0--------------|-------6----6------3----3-|
--------3-----------3----3-|--------2--------------|-------3----3------5----5-|
--------2-----------2----2-|--------0--------------|-------3----3------3----3-|
---------------------------|-----------------------|--------------------------|
--2--2-----2-----2--L-1----|--0--0-----------------|--------------3-------3---|
---------------------------|-----------------------|--3-------3---------------|


  Q    E  S S Q    H.            
-------0----0------1------------|
-------1----1------3------------|
-------2----2------2------------|
--------------------------------|
--------------1-----------------|
--1-------1---------------------|


Chorus 3 letzter Takt
  Q    E  S S Q    E  E   
-------0----0-1----------|
-------2----2-3----------|
-------0----0-2----------|
--------------0----------|
--0-------0--------------|
-------------------0--1--|


Break
  E  E  S E.  Q    Q       E  E  S E.  Q    E  E     E  S S S E  S S E  S S E.   
--5--3----1---0---------|--0-------0---1----------|--3--1-3---1--3---1--3---5---|
--3---------------------|--2--3-------------------|--3--------------------------|
--3---------------------|--0----------------------|-----------------------------|
------------------------|--------------0----------|-----------------------------|
-------------------0----|-------------------------|-----------------------0-----|
--3-----1-----0---------|--1-----0----------0--1--|--3------1------0------------|


                                                            |-3|               
  Q    Q    E.  S S E.     E.  S S E  S E  E  S E.     Q    E  Q    Q    Q     
--0---------------------|--6---5-L-3--1-L--1--3-1---|--0----1--0--------------|
--2---------------------|--6----------3-L-----3-----|--2------------3---------|
--0---------------------|--7----------2-L-----2-----|--0----------------------|
------------------------|--0-----0------L-----------|-------------------------|
------------0-----------|---------------------------|-------------------------|
--1----3--------3-1-----|---------------0-----0-----|--1----1-------2----2----|


  Q    Q    Q    Q       Q    Q    E.  S E  S S    Q    E  S S E  E  E  S S  
----------------------|----------------0----0---|-------0----0-------0----0-|
--3-------------------|--2-------------2----2---|-------2----2-------2----2-|
--3---------4---------|--0-------------0----0---|-------0----0-------0----0-|
------------6---------|--2----------------------|---------------------------|
----------------------|--0----0----------0----0-|--0-------0---0--0-----0---|
--3----3----4----4----|-------------------------|---------------------------|

 
  Q    E  S S E  E  E  S S   
-------0----0--------------|
-------2----2-------1--2-3-|
-------0----0----2---------|
---------------------------|
--0-------0------0--3--4-5-|
---------------------------|


Solo                                                  |-3| |3|   
  Q    E  E  S   E  S S S S S    E  E  E  E  S   E  S E  S S E   
---------------4g5--1-3-1-3-5-|--3--1--L-------4g5----3--1---3--|
-------3---------3------------|--1-----1---------3--6-----------|
-------2---------2------------|---------------------------------|
--0-------0--0--------0---0---|---------------------------------|
------------------------------|--3--------3--3--------3----3----|
------------------------------|---------------------------------|

                                                                            ^  ^  ^   
  |--3--|                                                                             
  E  E  E  E  E  S S E  E  E     E  E  E  E  S   E.  E  E     E  E  Q    E  E  E  E   
--5--------1-------1----1--3--|--1--0----------4g5---5--3--|--5----------------0--1--|
--3--6--3--0-------3----------|--2---------------3---------|--3--3--L-------3--3--3--|
------------------------------|--0-----2-------------------|--2-------------2--2--2--|
------------------------------|----------------------------|--0-----0----0--0--0--0--|
--2-----------2--2---2--2--1--|--0--------0--0-------3--4--|-------------------------|
------------------------------|----------------------------|-------------------------|


  ^                                                                       
                                 |-3| |-3-| |-3| |3|  |-3| |3|  |--3--|   
  Q    E  E  S   S S S S S E     E  S S S S E  S S E  E  S S E  E  E  E   
---------------1g3-----1---3--|--3--4-3-1---1--3---4------------1--3--4--|
--3----1---------3---3---3----|-----------3-0------------1---3-----------|
--2---------------------------|-----------------------2------------------|
------------------------------|------------------------------------------|
--3-------3--3-----3---3---3--|--2---------------2----2----2----1--------|
------------------------------|------------------------------------------|


                              Bridge
        |-3| |3|                                                                       
  E  E  E  S S E  Q    E  E     Q    E  E  Q    E  E     Q    E  E  Q    H.            
--5-----6--5---3--5----------|-------6----------3-----|-------0----------1------------|
--2-----3---------2----------|-------3----------5-----|-------1----------3------------|
--2--2--3----3----2----------|-------3----------3-----|-------2----------2------------|
-----------------------------|------------------------|-------------------------------|
--0---------------0----0-----|-------------3-------3--|-------------1-----------------|
--------------------------4--|--3-------3-------------|--1-------1--------------------|

 Halber Chorus
  Q    E  S S E  E  E  S S    Q    E  S S Q    E  E     Q    E  S S E  E  E  S S  
-------3----3-------3----3-|-------0----0------1-----|-------3----3-------3----3-|
-------3----3-------3----3-|-------2----2------3-----|-------3----3-------3----3-|
-------3----3-------3----3-|-------0----0------2-----|-------3----3-------3----3-|
---------------------------|--------------0-------0--|---------------------------|
--1-------1----------------|--0-------0--------------|--1-------1----------------|
--------------0--0--3--4---|-------------------------|--------------0--0--3--4---|


                         Vers 4
  Q    Q    E  E  S E.     Q    H.              Q    H.              Q    H.            
-------0----------------|-------1------------|-------1------------|-------1------------|
-------2----------------|-------3------------|-------3------------|-------3------------|
-------0----------------|-------2------------|-------2------------|-------2------------|
------------------------|--0-----------------|--------------------|--------------------|
--0---------L--3----4---|--------------------|--3-----------------|--2-----------------|
------------------------|--------------------|--------------------|--------------------|


  Q    Q    E  E  S E.     Q    Q    E  E  S E  S    Q    Q    E  E  S E  S  
-------0----------------|-------1----L-----1------|-------1----L-----1----1-|
-------2----------------|-------3----L-----3------|-------3----L-----3----3-|
-------0----------------|-------2----L-----2------|-------2----L-----2----2-|
------------------------|--0------------0--L------|-------------------------|
--0---------L--3----4---|--------------------4----|--3------------3--L-1----|
------------------------|-------------------------|-------------------------|


                                               Bridge   
  Q    Q    E  E  S E  S    Q    H.              Q    E  E  Q    S S E   
-------1----L-----1----1-|-------0------------|-------6----------3------|
-------3----L-----3----3-|-------2------------|-------3----------5------|
-------2----L-----2----2-|-------0------------|-------3----------3------|
-------------------------|--------------------|-------------------------|
--2------------2--L-1----|--0-----------------|-------------3----L-3----|
-------------------------|--------------------|--3----------------------|


  Q    Q    Q    H.            
-------0---------1------------|
-------1---------3------------|
-------2---------2------------|
------------------------------|
------------1-----------------|
--1---------------------------|


Chorus bis zum Outro:

  Q    E  S S Q    E  E     E  E  E  S S Q    E  E   
-------0----0------1-----|--------0----0------1-----|
-------2----2------3-----|--------2----2------3-----|
-------0----0------2-----|--------0----0------2-----|
--------------0-------0--|---------------0-------0--|
--0-------0--------------|--0--0-----0--------------|
-------------------------|--------------------------|


  E  E  E  S S Q    H.             
--------0----0------1------------||
--------2----2------3------------||
--------0----0------2------------||
--------------------0------------||
--0--0-----0---------------------||
---------------------------------||




Duration Legend
---------------
W - whole
H - half
Q - quarter
E - 8th
S - 16th
T - 32nd
X - 64th
. - note dotted
|-n-|  - n-tuplets


Tablature Legend
----------------
L - tied note
x - dead note
g - grace note
(n) - ghost note
> - accentuded note
NH - natural harmonic
AH - artificial harmonic
TH - tapped harmonic
SH - semi harmonic
PH - pitch harmonic
h - hammer on
p - pull off
b - bend
br - bendRelease
pb - preBend
pbr - preBendRelease
brb - bendReleaseBend
\n/ - tremolo bar dip
\n - tremolo bar dive
-/n - tremolo bar Release up
/n\ - tremolo bar inverted dip
/n - tremolo bar return
-\n - tremolo bar Release down
S - shift slide
s - legato slide
/ -  slide into from below or out of upwards
\ -  slide into from above or out of downwards
~ - vibrato
W - wide vibrato
tr - trill
TP - tremolo picking
T - tapping
S - slap
P - pop
< - fade in
^ - brush up
v - brush down
Suggest correction
Give kudos to tab author, rate the tab!
1 2 3 4 5
comments
print report bad tab
guest
You may want to rate the tab now too:
select rating
Wanna post a correction for this tab? Suggest correction