Oops, an error
Loading. Please wait.

No Lives Matter tab

version 1
version 1

Whole song

  • First version on UG, based on the song "No Lives Matter" by Body Count.
  • More accurate, contains all riffs as well as break riffs.

Interactive

562 views 27 this week
2 commentsread comments
1 2 3 4 5
x 4
add to favorites
×
Save as Personal and add changes to this tab that will be seen only by you. Learn more ›
×
You can save this tab as Personal to edit and correct it or add notes. All changes will be seen only by you. Learn more »
launch autoscroll
font size
0
reset
how to read this tab
guitar tuner
edit
Autoscroll
slow
fast
+/-
esc
set tempo
stop
About this tab version
First version on UG, based on the song "No Lives Matter" by Body Count. Was this info helpful? Yes No
Tuning: half-step down D# G# C# F# A# D#

[Verse]
D#|----------------------------------------------------|
A#|----------------------------------------------------|
F#|----------------------------------------------------|
C#|----------------------------------------------------|
G#|----------------------------------------------------|
D#|--3b----0--0--0--0-----0-----0-----0--0-----0--3----|

D#|----------------------------------------------------|
A#|----------------------------------------------------|
F#|----------------------------------------------------|
C#|----------------------------------------------------|
G#|----------------------------------------------------|
D#|--6-----0--0--0--0-----0-----0-----0--3--2--0--2----|

D#|----------------------------------------------------|
A#|----------------------------------------------------|
F#|----------------------------------------------------|
C#|----------------------------------------------------|
G#|----------------------------------------------------|
D#|--3b----0--0--0--0-----0-----0-----0--0-----0--3----|

D#|----------------------------------------------------|
A#|----------------------------------------------------|
F#|----------------------------------------------------|
C#|----------------------------------------------------|
G#|--------------------------5--4-----5--4-----5--4----|
D#|--6-----0--0--0--0-----0--3--2--0--3--2--0--3--2----|

D#|----------------------------------------------------|
A#|----------------------------------------------------|
F#|----------------------------------------------------|
C#|----------------------------------------------------|
G#|----------------------------------------------------|
D#|--3b----0--0--0--0-----0-----0-----0--0-----0--3----|

D#|----------------------------------------------------|
A#|----------------------------------------------------|
F#|----------------------------------------------------|
C#|----------------------------------------------------|
G#|----------------------------------------------------|
D#|--6-----0--0--0--0-----0-----0-----0--3--2--0--2----|

D#|----------------------------------------------------|
A#|----------------------------------------------------|
F#|----------------------------------------------------|
C#|----------------------------------------------------|
G#|----------------------------------------------------|
D#|--3b----0--0--0--0-----0-----0-----0--0-----0--3----|

D#|----------------------------------------------------|
A#|----------------------------------------------------|
F#|----------------------------------------------------|
C#|----------------------------------------------------|
G#|--------------------------5--4-----5--4-----5--4----|
D#|--6-----0--0--0--0-----0--3--2--0--3--2--0--3--2----|

[Pre-Chorus]
D#|----------------------------------------------------|
A#|----------------------------------------------------|
F#|----------------------------------------------------|
C#|-----------------------------------------5L----5----|
G#|--4-----4--------------4--------4--------3L----3----|
D#|--2-----2-----------0--2--------2-------------------|
                                                           (x4)
D#|----------------------------------------------------|
A#|----------------------------------------------------|
F#|----------------------------------------------------|
C#|----------------------------------------------------|
G#|--4-----4--------------4----------------------------|
D#|--2-----2-----3--2--0--2-----0--2--0--3--2--0--2----|

[Chorus]
D#|----------------------------|-------|----------------------------|
A#|----------------------------|-------|----------------------------|
F#|----------------------------|-------|----------------------------|
C#|-----------5L----------5L---|--5----|--4-------------------------|
G#|--2--------3L----------3L---|--3----|--2--------2L----------2----|
D#|--0--------3L----------3L---|--3----|--2--------0L----------0----|

D#|----------------------------------------------------|
A#|----------------------------------------------------|
F#|----------------------------------------------------|
C#|----------------------------------------------------|
G#|--2M----2M----2M----2M----2M----7--------5----------|
D#|--0M----0M----0M----0M----0M----5--------3----------|

D#|----------------------------|-------|----------------------------|
A#|----------------------------|-------|----------------------------|
F#|----------------------------|-------|----------------------------|
C#|-----------5L----------5L---|--5----|--4-------------------------|
G#|--2--------3L----------3L---|--3----|--2--------2L----------2----|
D#|--0--------3L----------3L---|--3----|--2--------0L----------0----|

D#|----------------------------------------------------|
A#|----------------------------------------------------|
F#|----------------------------------------------------|
C#|----------------------------------------------------|
G#|--2M----2M----2M----2M----2M----7--------5----------|
D#|--0M----0M----0M----0M----0M----5--------3----------|

[Verse]
D#|----------------------------------------------------|
A#|----------------------------------------------------|
F#|----------------------------------------------------|
C#|----------------------------------------------------|
G#|----------------------------------------------------|
D#|--3b----0--0--0--0-----0-----0-----0--0-----0--3----|

D#|----------------------------------------------------|
A#|----------------------------------------------------|
F#|----------------------------------------------------|
C#|----------------------------------------------------|
G#|----------------------------------------------------|
D#|--6-----0--0--0--0-----0-----0-----0--3--2--0--2----|

D#|----------------------------------------------------|
A#|----------------------------------------------------|
F#|----------------------------------------------------|
C#|----------------------------------------------------|
G#|----------------------------------------------------|
D#|--3b----0--0--0--0-----0-----0-----0--0-----0--3----|

D#|----------------------------------------------------|
A#|----------------------------------------------------|
F#|----------------------------------------------------|
C#|----------------------------------------------------|
G#|--------------------------5--4-----5--4-----5--4----|
D#|--6-----0--0--0--0-----0--3--2--0--3--2--0--3--2----|

D#|----------------------------------------------------|
A#|----------------------------------------------------|
F#|----------------------------------------------------|
C#|----------------------------------------------------|
G#|----------------------------------------------------|
D#|--3b----0--0--0--0-----0-----0-----0--0-----0--3----|

D#|----------------------------------------------------|
A#|----------------------------------------------------|
F#|----------------------------------------------------|
C#|----------------------------------------------------|
G#|----------------------------------------------------|
D#|--6-----0--0--0--0-----0-----0-----0--3--2--0--2----|

D#|----------------------------------------------------|
A#|----------------------------------------------------|
F#|----------------------------------------------------|
C#|----------------------------------------------------|
G#|----------------------------------------------------|
D#|--3b----0--0--0--0-----0-----0-----0--0-----0--3----|

D#|----------------------------------------------------|
A#|----------------------------------------------------|
F#|----------------------------------------------------|
C#|----------------------------------------------------|
G#|--------------------------5--4-----5--4-----5--4----|
D#|--6-----0--0--0--0-----0--3--2--0--3--2--0--3--2----|

[Pre-Chorus]
D#|----------------------------------------------------|
A#|----------------------------------------------------|
F#|----------------------------------------------------|
C#|-----------------------------------------5L----5----|
G#|--4-----4--------------4--------4--------3L----3----|
D#|--2-----2-----------0--2--------2-------------------|
                                                           (x4)
D#|----------------------------------------------------|
A#|----------------------------------------------------|
F#|----------------------------------------------------|
C#|----------------------------------------------------|
G#|--4-----4--------------4----------------------------|
D#|--2-----2-----3--2--0--2-----0--2--0--3--2--0--2----|

[Bridge]
(Mostly Bass during this part)

[Chorus]
D#|----------------------------|-------|----------------------------|
A#|----------------------------|-------|----------------------------|
F#|----------------------------|-------|----------------------------|
C#|-----------5L----------5L---|--5----|--4-------------------------|
G#|--2--------3L----------3L---|--3----|--2--------2L----------2----|
D#|--0--------3L----------3L---|--3----|--2--------0L----------0----|

D#|----------------------------------------------------|
A#|----------------------------------------------------|
F#|----------------------------------------------------|
C#|----------------------------------------------------|
G#|--2M----2M----2M----2M----2M----7--------5----------|
D#|--0M----0M----0M----0M----0M----5--------3----------|

D#|----------------------------|-------|----------------------------|
A#|----------------------------|-------|----------------------------|
F#|----------------------------|-------|----------------------------|
C#|-----------5L----------5L---|--5----|--4-------------------------|
G#|--2--------3L----------3L---|--3----|--2--------2L----------2----|
D#|--0--------3L----------3L---|--3----|--2--------0L----------0----|

D#|----------------------------------------------------|
A#|----------------------------------------------------|
F#|----------------------------------------------------|
C#|----------------------------------------------------|
G#|--2M----2M----2M----2M----2M----7--------5----------|
D#|--0M----0M----0M----0M----0M----5--------3----------|

D#|----------------------------|-------|----------------------------|
A#|----------------------------|-------|----------------------------|
F#|----------------------------|-------|----------------------------|
C#|-----------5L----------5L---|--5----|--4-------------------------|
G#|--2--------3L----------3L---|--3----|--2--------2L----------2----|
D#|--0--------3L----------3L---|--3----|--2--------0L----------0----|

D#|----------------------------------------------------|
A#|----------------------------------------------------|
F#|----------------------------------------------------|
C#|----------------------------------------------------|
G#|--2M----2M----2M----2M----2M----7--------5----------|
D#|--0M----0M----0M----0M----0M----5--------3----------|

D#|----------------------------|-------|----------------------------|
A#|----------------------------|-------|----------------------------|
F#|----------------------------|-------|----------------------------|
C#|-----------5L----------5L---|--5----|--4-------------------------|
G#|--2--------3L----------3L---|--3----|--2--------2L----------2----|
D#|--0--------3L----------3L---|--3----|--2--------0L----------0----|

D#|----------------------------------------------------|
A#|----------------------------------------------------|
F#|----------------------------------------------------|
C#|----------------------------------------------------|
G#|--2M----2M----2M----2M----2M----7--------5----------|
D#|--0M----0M----0M----0M----0M----5--------3----------|



************************************

| b  Bend
| #  
| (x 
| )  
| L  
| M  

************************************

            
            
Suggest correction
Creating personal tab
Creating personal tab
You can edit any tab online and save it as your Personal.

You can edit, replace or remove any tab part or add personal notes – all changes will be seen only by you.

Personal tabs can be accessed anytime from any device, even offline.
Learn more »
comments
print report bad tab
2 comments total.
0 reply
lame001 10 Mar 31, 2017 04:15 AM

Great! Thanks man! Love the new BC shit.
Can you please tab "ski mask way" also?n That would be great!

guest
You may want to rate the tab now too:
select rating
Wanna post a correction for this tab? Suggest correction