Oops, an error
Loading. Please wait.

I Like The Way tab

version 3
version 3
9,231 views 3 this week
1 commentread comment
1 2 3 4 5
x 5
add to favorites
×
Save as Personal and add changes to this tab that will be seen only by you. Learn more ›
×
You can save this tab as Personal to edit and correct it or add notes. All changes will be seen only by you. Learn more »
launch autoscroll
font size
0
reset
how to read this tab
guitar tuner
edit
Autoscroll
slow
fast
+/-
esc
set tempo
stop
Bodyrockers: I like the way (you move)

This is a really great song and its so easy to play.
This is a good one to play if your a begginer.
          
         PUT YOUR AMPS VOLUME UP FULL THEN PLAY THIS ONE!

   Main Riff
e|---------------------------------------------------------------------|
b|---------------------------------------------------------------------|
g|---------------------------------------------------------------------|    
d|---------------------------------------------------------------------|
a|-4-4-0-4/7--4-4-0-4/7--9-9-9-7-7-7--4-4-0-4/7--4-4-0-4/7--9-9-9-7-7-7|
e|-2-2-0-2/5--2-2-0-2/5--7-7-7-5-5-5--2-2-0-2/5--2-2-0-2/5--7-7-7-5-5-5|

e|---------------------------------------------------------------------|
b|---------------------------------------------------------------------|
g|---------------------------------------------------------------------|    
d|---------------------------------------------------------------------|
a|-4-4-0-4/7--4-4-0-4/7--9-9-9-7-7-7--9-9-9-7-7-7-9-9-9-9-9-9-9-9-9----|
e|-2-2-0-2/5--2-2-0-2/5--7-7-7-5-5-5--7-7-7-5-5-5-7-7-7-7-7-7-7-7-7----|

 And thats it, Thanks!
 Enjoy!
Suggest correction
Creating personal tab
Creating personal tab
You can edit any tab online and save it as your Personal.

You can edit, replace or remove any tab part or add personal notes – all changes will be seen only by you.

Personal tabs can be accessed anytime from any device, even offline.
Learn more »
comments
print report bad tab
1 comment total.
0 reply
Duckman025 16 Apr 26, 2010 11:24 PM

I think you suposed to palm mute, like this! It sounds better (i think)...

e|---------------------------------------|
b|---------------------------------------|
g|---------------------------------------|
d|---------------------------------------|
a|-4-4-0-4-XX-4-4-0-4-XX--9-9-9-7-7-7----|
e|-2-2-0-2-XX-2-2-0-2-XX--7-7-7-5-5-5----|

guest
Wanna post a correction for this tab? Suggest correction