Oops, an error
Loading. Please wait.

Yar Pid Bass Tab

2,253 views 1 this week
no commentswrite comment
1 2 3 4 5
please rate
add to favorites
launch autoscroll
font size
0
reset
guitar tuner
Tab Pro tools
  • play this tab
  • loop segment
  • change instrument
  • show fretboard
  • metronome
×
Best way to learn
"Yar Pid"
Autoscroll
slow
fast
+/-
esc
set tempo
stop
Contributor
Difficulty
intermediate
I could not find the official site. But there are some about them.
Their fan site:
http://www.bodyslamfans.com/

And a site containing info about them:
http://www.ethaimusic.com/archives/bodyslam.php

It's a site all about Thai bands. This band IS signed to a local Thailand record label. 
do not know the name though.

I know there's definitely lots of mistakes in this, so don't hesitate to e-mail me at 
Thanks and enjoy.

Listen to the song to get the exact rythm.

Note: These are 1's, not 11's.

INTRO:

G|----------------------------------------------------------|
D|----------------------------------------------------------|
A|-----------------111-111-533-533-----------------111-1113-| 2x
E|-111-111-111-111-----------------111-111-111-111----------|

VERSE 1:

G|--------------------------|
D|-3-3--3-1-3---------------|
A|-------------1-1--3-33-31-| 4x
E|--------------------------|

PRE-CHORUS:

G|------------------33333333---------|
D|-33-3333333333333------------------|
A|---------------------------3-33353-|
E|-----------------------------------|
Then slightly different:
G|------------------33333333---------|
D|-3313333333333333------------------|
A|---------------------------3-33353-| 2x
E|-----------------------------------|
Then leading into the chorus:
G|-------------------------------|
D|-3313333333333333-----------0--|
A|------------------1-1--3-313-3-|
E|-------------------------------|

CHORUS:

G|------------------33-33333---------------------------33-33333------------|
D|-33-3333333333333-------------------33-3333333333333----------------0--0-|
A|---------------------------33-33333---------------------------33-313-31--|
E|-------------------------------------------------------------------------|

G|--------------------------------|
D|--------------------------------|
A|-----------------11-111-133-353-|
E|-11-111-111-111-1---------------|

G|------------------------------------------------------|
D|-------------------------0--0-------------------------|
A|---------------1-1--3-313-13-----------------1-1-1113-|
E|-1-1-1--1-11-1-----------------1-1-1--1-11-1----------|

(In the second chorus add "A|-3135135-|" on the end, or on the "5" go up to an open D string.)

VERSE 2:

G|-----3~---|
D|-3~~------|
A|-------3~-|
E|----------|

Repeat Pre-Chorus and Chorus.

GUITAR SOLO:

The slides are just what I heard, but you can do whatever you want. And yes, it is a 10.

G|---------------------------------------------------|
D|----------------------------------------------0--0-|
A|-----------1-1--1-3---------------1-1--1-3-313-13--|
E|-1-1--1-1------------10\1-1--1-1-------------------|

G|--------------------------------------------------------|
D|------------------------------------------------0--0----|
A|-------------1-1--1-3---------------1-1--1-3-313-13-----|
E|-1-1--1-1--5\----------10\1-1--1-1------------------1~~-|

BRIDGE:

G|-------------------------------------------------|
D|-------------------------------------------------|
A|-----------111-1333-3333-----------111-1333-3333-|
E|-111-1111-1--------------111-1111-1--------------|

G|-------------------------------------------------------|
D|-------------------------------------------------------|
A|------------------11111111-33333333------------------1-|
E|-1111111111111111-------------------1111111111111111---|

LAST CHORUS:

Accent the downbeats.

G|------------------33-33333---------------------------33-33333-----------|
D|-33-333-333-33333-------------------33-333-333-33333---------------0--0-|
A|---------------------------33-33333---------------------------33-13-13--|
E|------------------------------------------------------------------------|

G|------------------33333333-531---------------------------------------|
D|-3333333333333333-------------31----------------------------------0--|
A|--------------------------------31------------------11-111-133-313-1-|
E|----------------------------------3-11-111-111-111-1-----------------|

G|-----------------------------------------|
D|------------------------------0--0-------|
A|-----------------11-111-133-13-13--------|
E|-11-111-111-111-1-----------------11-1-1-|
comments
We did not receive enough feedback on this tab! Please rate:
print report bad tab
1 2 3 4 5
I want to post or [tab]
guest
You may want to rate the tab now too:
select rating
Please do not post tabs as comments. Select "correction" instead!