Oops, an error
Loading. Please wait.

493 Ruth chords

2,280 views 1 this week
no commentswrite comment
1 2 3 4 5
x 4
add to favorites
×
Save as Personal and add changes to this tab that will be seen only by you. Learn more ›
×
You can save this tab as Personal to edit and correct it or add notes. All changes will be seen only by you. Learn more »
launch autoscroll
font size
0
reset
transpose
0
reset
display chords
guitar tuner
edit
Autoscroll
slow
fast
+/-
esc
set tempo
stop
Strumming
There is no strumming pattern for this song yet. and get +5 IQ
My old email was chrishoward53@hotmail.com, but it got hacked/deleted or whatever,
so if you want anything else tabbed (or make any corrections) then email my new
address (chrishoward1993@hotmail.com) instead, because i probably won't check the
comments or messages on here.


Anyway, heres 493 Ruth, really easy (and really fun)



Intro:

Riff:
--------------------------
--7-8-7-8-7-5-------------
--------------7--4-7-4----
-----------------------7--
--------------------------
--------------------------
                    D  A  G
------------      --2--0--3--|
------------      --3--2--0--|
------------ (x3) --2--2--0--|
------------      --0--2--0--|
--/9--0--2--      --0--0--2--|
------------      --------3--|


Proceed with G-D three times, and finish with D-A-G.


Verse: (x2)

  D  G  D  F# G  D  F# G  E  D  A  G
--------------------------------------|
--------------------------------------|
--5-----5--------5-----------5--------|
--5--5--5--4--5--5--4--5--2--5--7--5--|
--7--5--7--4--5--7--4--5--2--7--7--5--|
-----3-----2--3-----2--3--0-----5--3--|
  .  .  .  .  .  .  .  .  .  .  .  .
                 *  *  *  *

*Some chords arent muted

Chorus: (x2)

  D  G  Bm G
--2--3--2--3--|
--3--0--3--0--|
--2--0--4--0--|
--0--0--4--0--|
--0--2--2--2--|
-----3-----3--|


-Verse-



Bridge


  D  G  D  F# G  D  F# G  Em D  F# G  A* Em A
--2--3--2--2--3--2--2--1--0--2--2--3--0--0--0--|
--3--0--3--2--0--3--2--0--0--3--2--0--2--0--2--|
--2--0--2--3--0--2--3--0--0--2--3--0--0--0--2--|
--0--0--0--4--0--0--4--0--2--0--4--0--2--2--2--|
--0--2--0--4--2--0--4--2--2--0--4--2--1--2--0--|
-----3-----2--3-----2--3--0-----2--3-----0-----|

*Adim



-Chorus- (x2)



Bridge #2:

  D  F# G  A* Bm F# G  Em            D  Bm            G  D  F# Bm A  G  A
--2--2--3--0--2--2--3--0--         --2--2--         --3--2--2--2--0--3--0--|
--3--2--0--2--3--2--0--0--         --3--3--         --0--3--2--3--2--0--2--|
--2--3--0--0--4--3--0--0--  (x2)   --2--4--  (x2)   --0--2--3--4--2--0--2--|
--0--4--0--2--4--4--0--2--         --0--4--         --0--0--4--4--2--0--2--|
--0--4--2--1--2--4--2--2--         --0--2--         --2--0--4--2--0--2--0--|
-----2--3--------2--3--0--         --------         --3-----2--------3-----|



Outro:

  D  G  Bm Em D  G  Bm G  D  G
--2--3--2--0--2--3--2--1--2--3--|
--3--0--3--0--3--0--3--0--3--0--|
--2--0--4--0--2--0--4--0--2--0--|
--0--0--4--2--0--0--4--0--0--0--|
--0--2--2--2--0--2--2--2--0--2--|
-----3-----0-----3-----3-----3--|


End the song with D-A-G
Suggest correction
Creating personal tab
Creating personal tab
You can edit any tab online and save it as your Personal.

You can edit, replace or remove any tab part or add personal notes – all changes will be seen only by you.

Personal tabs can be accessed anytime from any device, even offline.
Learn more »
comments
print report bad tab
guest
You may want to rate the tab now too:
select rating
Wanna post a correction for this tab? Suggest correction