Oops, an error
Loading. Please wait.

Theres My Bailout chords

148 views 6 this week
no commentswrite comment
1 2 3 4 5
1 last vote to show rating
add to favorites
×
Save as Personal and add changes to this tab that will be seen only by you. Learn more ›
×
You can save this tab as Personal to edit and correct it or add notes. All changes will be seen only by you. Learn more »
launch autoscroll
font size
0
reset
transpose
0
reset
simplify chords
display chords
guitar tuner
edit
Autoscroll
slow
fast
+/-
esc
set tempo
stop
Author
Difficulty
Strumming
There is no strumming pattern for this song yet. and get +5 IQ
[Intro]
   E
e|-----------------------------|
B|-----------------------------|
G|-----------------------------|
D|--6-------------6--9-11-9-6--|
A|-----------------------------|
E|-0-0-7h9-7h9-7-0-0-----------|


[Verse]
  E                             G#m
e|-----------------------------------------------------------|
B|-----------------------------------------------------------|
G|-----------------------------------------------------------|
D|--6-------------6--------------6-------------6-------------|
A|-----------------------------------------------------------|
E|-0-0-7h9-7h9-7-0-0-7h9-7h9-7--4-4-7h9-7h9-7-4-4-7h9-7h9-7--|

  E               D
e|----------------5-5-5-5-5-5-5-5------|
B|----------------7-7-7-7-7-7-7-7------|
G|----------------7-7-7-7-7-7-7-7------|
D|--6-------------7-7-7-7-7-7-7-7------|
A|----------------5-5-5-5-5-5-5-5------|
E|-0-0-7h9-7h9-7-----------------------|

E
Ever since my cellphone, I never have a pen

G#m
I don't speak in English, I speak in predictive text

E                            D  
Ever since we got our cable, I never have anything to do


[Break]
Amaj7


[Verse]
   E
e|-----------------------------|
B|-----------------------------|
G|-----------------------------|
D|--6-------------6--9-11-9-6--|
A|-----------------------------|
E|-0-0-7h9-7h9-7-0-0-----------|

e|-----------------------------------------------------------|
B|-----------------------------------------------------------|
G|-----------------------------------------------------------|
D|--6-------------6--------------6-------------6-------------|
A|-----------------------------------------------------------|
E|-0-0-7h9-7h9-7-0-0-7h9-7h9-7--4-4-7h9-7h9-7-4-4-7h9-7h9-7--|

E
Ever since our drop-off service, I can't read a book

G#m
There's always something else around, plus I owe the library nineteen bucks.


[Break]
Amaj7 E


[Verse]
A                           F#m *
Tomorrow, I'm gonna ride my bike
                  E
From the Bronx to Dyker Heights               
                   G#m                                       F#m
Leave East Tremont when it's bright and don't get home 'till late at night
                              Am
Yeah, that's when I'll fix my bike, FIX MY BIKE!

F#m*:
e|-12--------------------------------------------------------------------------------|
B|----12-----------------------------------------------------------------------------|
G|-------13----------------------------13-13-13-13-13-13-13-14-14-14-14-14-14-14-14--|
D|----------14----------------11-------14-14-14-14-14-14-14-14-14-14-14-14-14-14-14--|
A|-------------14-11-11h14-11----14-11-11-11-11-11-11-11-11-12-12-12-12-12-12-12-12--|
E|-----------------------------------------------------------------------------------|

[Break]
A A A A
E E G#m G#m
(x2)


[Bridge]
A                             F#m
Everything is magic 'till you can't afford the cost!
                E                                  G#m
'Till you ain't got eight-hundred bucks to pay the rent!
G#m
Until you don't have twenty bucks!

A                             F#m
Everything is magic 'till you can't afford the cost
                E                                  G#m
'Till you ain't got eight-hundred bucks to pay the rent!
G#m
Until you don't have twenty bucks!

A                                      F#m
All the perks are priceless, 'till you can't afford the cost
                E                                  G#m
'Till you ain't got eight-hundred bucks to pay the rent
                            A
Until you don't have twenty bucks to have a couple beers
F#m
Ten dollars for every meal
       E                                        G#m                         A
Or the two-fifty to ride each way while they're cutting service on the subway!
                              F#m
But the nineteenth floor went up today
                E
Penthouse and a fire escape
                   G#m
I sat in grass two blocks away
                        F#m
I watched the boats and counted planes
                         B                               E
When so much shit crowds up your day, it's hard to enjoy anything
                            G#m
Another floor went up today, and tomorrow they'll be taking my park away!


[Outro]
A5                       F5                              E
I wanna kiss you on that crane, I wanna kiss you on that crane
                         Ab5                             A5
I wanna kiss you on that crane, I wanna kiss you on that crane
A5                       F5                              E
I wanna kiss you on that crane, I wanna kiss you on that crane
                         Ab5                             A5
I wanna kiss you on that crane, I wanna kiss you on that crane
A5                       F5                              E
I wanna kiss you on that crane, I wanna kiss you on that crane
                         Ab5                             A5
I wanna kiss you on that crane, I wanna kiss you on that crane
A5                       F5                              E
I wanna kiss you on that crane, I wanna kiss you on that crane
E                       F#m
 I wanna party like I'm death row pardoned
          G#m                        B
While the freight elevators watch as we'll both live to
               Amaj7    E
Fight another day! Yeah! 


            
            
Suggest correction
Creating personal tab
Creating personal tab
You can edit any tab online and save it as your Personal.

You can edit, replace or remove any tab part or add personal notes – all changes will be seen only by you.

Personal tabs can be accessed anytime from any device, even offline.
Learn more »
Give kudos to tab author, rate the tab!
1 2 3 4 5
comments
print report bad tab
guest
You may want to rate the tab now too:
select rating
Wanna post a correction for this tab? Suggest correction