Oops, an error
Loading. Please wait.

Always Like This Chords

version 1
version 1

Acoustic

62,994 views 36 this week
2 commentsread comments
1 2 3 4 5
accurate
x 8
add to favorites
launch autoscroll
font size
0
reset
transpose
0
reset
display chords
guitar tuner
Autoscroll
slow
fast
+/-
esc
set tempo
stop
Help us to improve Ultimate-Guitar.com Take our survey!
×
Author
Difficulty
novice
-------------------------------------------------------------------------------
                             Always Like This - Bombay Bicycle Club
-------------------------------------------------------------------------------
Tabbed by: Milchbubi99
Email: milchbubi99@yahoo.de

Tuning: EADGBe


Intro

C#
Oh she can wait,
    Bbm
For what I can give,
     C#    
She knows what I am but,
Bbm
She won't believe me,
   C#
Is it all ok?
       Bbm
Will I come off the lightest?
C#
I can't believe it,
Bbm
It's always like this,

Riff:

e|---------------------------1---------------------------------------------|
B|---------6-----4---------------------------------------------------------|
G|-------6-----6-----------3-----------------------------------------------|
D|----------6--------------------3-4-6-------------------------------------|
A|--4-----------------1----------------------------------------------------|
E|-------------------------------------------------------------------------|

[play either riff or chords over verse]


Kept it at bay
Yes you kept your words
There on your mouth
But it's not what I heard

If I follow the light
That I deem the brightest
I won't believe that
It's always like this


Refrain:
F#      Ebm 
I'm not whole
        Bbm
I'm not whole
             F#
You waste it all

[Repeat]

G#
all...
I'm not whole

[Riff]

Oh you can wait
For what I can give
You know what I am
So you know how I live
Try to look proud
But you're not in the slightest
Its happening now
And it's always been like this

[Refrain]

| /  slide up
| \  slide down
| h  hammer-on
| p  pull-off
| ~  vibrato
| +  harmonic
| x  Mute note

===============================================================================
Suggest correction
comments
print report bad tab
2 comments total.
0 reply
harrytheblurfan 221 wrote on July 16 2010, 07:59 pm

Try this riff instead, not 100% correct but a bit closer to the original

e|----------------------------1-----------------------|
B|-------6-----------4----------2---------------------|
G|---------6-------6--------------3-------------------|
D|-----------6---6--------------------3-4-6-----------|
A|--4-4----------------1-1----------------------------|
E|----------------------------------------------------|

0 reply
Yemp 10 wrote on January 25 2011, 09:02 am


eb|----------------------------------------0--------------------------------|
Bb|---------5----------------3---------------------------------------------|
Gb|------------5-----4---5------------------2-0------ (0)-----------------|
Db|---------------5-------------------------------2--3-5------------------|
Ab|--3--------------------------------0------------------------------------|
Eb|-------------------------------------------------------------------------|


I play it like this. Ofcourse if you want to play in standard you can move everything up a half-step but this way the chords get alot easier. C/Am/F/Dm instead of respective sharps.

guest
You may want to rate the tab now too:
select rating
Wanna post a correction for this tab? Suggest correction