Oops, an error
Loading. Please wait.

Beg Tab

1,800 views 1 this week
1 commentread comment
1 2 3 4 5
please rate
add to favorites
launch autoscroll
font size
0
reset
how to read this tab
guitar tuner
Autoscroll
slow
fast
+/-
esc
set tempo
stop
Help us to improve Ultimate-Guitar.com Take our survey!
×
    Definitely one of my favorite songs, and since i haven't seen a guitar
tab for it yet, and i think people really want one,i thought i'd make it.
Never made a tab before, would appreciate the feedback and corrections. *I'm
basing this off the live versions, i.e. "Off the Avenue" and "WFUV" on
youtube
louis intro:     (not too sure)
e|-----------------------------------|
B|-----3---3---3---3---3-------------|
G|-----3---3---3---3---3------etc----|
D|-----3---3---3---3---3-------------|
A|-----------------------------------|
E|-----------------------------------|

    jamie intro alongside louie with the snare:
e|-----15------15------15------------|
B|-----15------15------15-----etc----|
G|-----15------15------15------------|  <--not sure about this note
D|-----------------------------------|
A|-----------------------------------|
E|-----------------------------------|

    jamie: ()= muted
           whole thing 2x  (louis plays same notes but starting on 3 of G)
e|---------------------------------------------------------------------|
B|---------------------------------------------------------------------|
G|---------------------------------------------------------------------|
D|----333-5----(3)-333-5----(3)-333-5----(3)-333-5---------------------|
A|----------5------------5------------5------------5-------------------|
E|---------------------------------------------------------------------|

e|-------------------------|
B|-------------------------|
G|-------------------------|   x4
D|----8-7p5--5-------------|
A|----------8--5-----------|
E|-------------------------|

    louis:
    p=pull (pull is optional)
e|--------------------------------------------------------------------------|
B|-11-11-11-13----(11)-11-11-11-13---(11)-11-11-11-13---(11)-11-11-11-13----|
G|------------12------------------12-----------------12-----------------12--|
D|--------------------------------------------------------------------------|
A|--------------------------------------------------------------------------|
E|--------------------------------------------------------------------------|

e|-------------------------|
B|-14-13p11----11----------|
G|----------14----12-------|   x4
D|-------------------------|
A|-------------------------|
E|-------------------------|

     jamie:
e|--------------------------------------------------------------------------|
B|--------------------------------------------------------------------------|
G|-10-10-10-12----(10)-10-10-10-12---(10)-10-10-10-12---(10)-10-10-10-12----|
D|------------12------------------12-----------------12-----------------12--|
A|--------------------------------------------------------------------------|
E|--------------------------------------------------------------------------|


e|--------------------------|
B|--------------------------|
G|-15-14p12----12-----------|   x4
D|----------15----12--------|
A|--------------------------|
E|--------------------------|

  both of the preceding parts are played together.
  jamie's intro is played throughout.
  then there's a variation on the previous ditty around 2:05, just listen for
  the rhythm.

     jaimie, muted (after ed's phat solo):
e|--------------------------------------------------------------------------|
B|----15-13-15--13-11-13--11-10-11--10-8-10---------------------------------|
G|--------------------------------------------------------------------------|
D|--------------------------------------------------------------------------|
A|--------------------------------------------------------------------------|
E|--------------------------------------------------------------------------|
      then same thing but backwards:
e|--------------------------------------------------------------------------|
B|----10-8-10--11-10-11--13-11-13--15-13-15---------------------------------|
G|--------------------------------------------------------------------------|
D|--------------------------------------------------------------------------|
A|--------------------------------------------------------------------------|
E|--------------------------------------------------------------------------|

   the next part, especially the chords, i am unsure of, so take it with a
grain or whatever. there's a part for each guitar, but this is all i've got:
h=hold
e|--------------------------------------------------------------------------|
B|----11h10-8-10-8-6----11h10-8-6-8-----------------------------------------|
G|-------------------------------7------------------------------------------|
D|--------------------------------------------------------------------------|
A|--------------------------------------------------------------------------|
E|--------------------------------------------------------------------------|

louis's solo:
e|----------------------------------------------------------------------------|
B|---13-13-13-13-11-11-------------11-----------------------------------------|    x2
G|---------------------12-12-12-12--------------------------------------------|
D|----------------------------------------------------------------------------|
A|----------------------------------------------------------------------------|
E|----------------------------------------------------------------------------|

e|----------------------------------------------------------------------------|
B|---15-15-15-15-15-16--------------------------------------------------------|    x2
G|---------------------15-15-15-15-15-----------------------------------------|
D|----------------------------------------------------------------------------|
A|----------------------------------------------------------------------------|
E|----------------------------------------------------------------------------|

e|---15-15-15-15-13-13--------------------------------------------------------|
B|---------------------15-15-15-15--------------------------------------------|    x4
G|---------------------------------15-----------------------------------------|
D|----------------------------------------------------------------------------|
A|----------------------------------------------------------------------------|
E|----------------------------------------------------------------------------|

And that's that! Really can't wait for the new album, love the sound so far.
*Also, if anyone's looking for new music to listen to, try Caddywhompus- The
Weight. Great song. Would be great if there were a tab for it though, huh?
(wink, nudge, etc.)
-Nicole
Suggest correction
What's this?
You can suggest a correction to this tab. Community and Mods will review your correction and vote to approve or reject it.
comments
We did not receive enough feedback on this tab! Please rate:
print report bad tab
1 2 3 4 5
1 comment total.
0 reply
Masquirina 130 wrote on August 14 2013, 02:08 pm

Thanks! This song is like being in 1993 (again)

guest
You may want to rate the tab now too:
select rating
Please do not post tabs as comments. Select "correction" instead!