Oops, an error
Loading. Please wait.

Cancel On Me Tab

version 2
version 2

Whole song

2,947 views 15 this week
no commentswrite comment
1 2 3 4 5
excellent!
x 8
add to favorites
launch autoscroll
font size
0
reset
how to read this tab
guitar tuner
Autoscroll
slow
fast
+/-
esc
set tempo
stop
Help us to improve Ultimate-Guitar.com Take our survey!
×
Author
Cancel On Me - Bombay Bicycle Club
You Tube Cover http://www.youtube.com/watch?v=fB06U59hW7M
Intro/Verse
E|---------------------------------------------------0---|
B|---------------------------------------------------0---|
G|------------13----------------------8--------------11--|
D|----6-------11-------6------13------9--------------9---|chord before chorus
A|----7--x16--9--x10---7-x16--11-x7---9--x3----------7---|
E|----0----------------0------9-------7--------------0---|

Chorus
E|----------------------------------------------------------------------|
B|----------------------------------------------------------------------|
G|--11-----9----11-9----------------------------------------------------|
D|--9------7----9--7----------------------------------------------------|
A|--7--x8--0-x4-7--0-x4--repeat then back to verse about---......-------|
E|--0-----------0-------------------------------------------------------|

Then Another Chorus

Solo
E|---------------------------------------------------------------------------|
B|---9b10b9------------12-12-12-12------9b10b9------12-12-12-12b14-9-9-9-----|
G|---------------------------------------------------------------------------|
D|--bend and release---------------------------------------------------------|
A|---------------------------------------------------------------------------|
E|---------------------------------------------------------------------------|

E|---------------------------------------------------------------------------|
B|----12b14--9-9---9---------------------------------------------------------|
G|---------------11----------------------------------------------------------|
D|---------------------------------------------------------------------------|
A|---------------------------------------------------------------------------|
E|---------------------------------------------------------------------------|

E|---------------------------------------------------------------------------|
B|---9b10b9------------12-12-12-12------9b10b9------12-12-12-12b14-9-9-9-----|
G|---------------------------------------------------------------------------|
D|--bend and release---------------------------------------------------------|
A|---------------------------------------------------------------------------|
E|---------------------------------------------------------------------------|

E|11b12----------------------------------------------------------------------|
B|------9-9----9-------------------------------------------------------------|
G|----------11-----repeat-solo-------9-9/13----------------------------------|
D|---------------------------------------------------------------------------|
A|---------------------------------------------------------------------------|
E|---------------------------------------------------------------------------|

Chorus

Interlude

E|--0-------------------------------------------------------------------------|
B|--0---9-------12------------------------------------------------------------|
G|--11--9---13--13---------------------13------------------------13-----------|
D|--7---9---16--14---repeat------16-------16----16---------16-------16---16---|
A|--9---7---14--12------------14----14-------14----14---14----14-------14--14-|
E|--0-------0-----------------------------------------------------------------|

E|----------------------------------------------------------------------------|
B|--------------------------------------14-12---------------------------------|
G|------------16-13------------------------------------------13---------------|
D|------14-------------14---------14-------------14----------14-few times-----|
A|---12----12-------12----12---12----12-------12----12-------12---------------|
E|----------------------------------------------------------------------------|

Outro Chords Strummed

E|---0-----------------------------------------------------------------|
B|---0----------12-----------------------------------------------------|
G|---13----13---13-----------------------------------------------------|
D|---14----11---11-----------------------------------------------------|
A|---14----9----9------------------------------------------------------|
E|---12----------------------------------------------------------------|
Suggest correction
comments
print report bad tab
guest
You may want to rate the tab now too:
select rating
Wanna post a correction for this tab? Suggest correction