Oops, an error
Loading. Please wait.

Carry Me Tab

4,952 views 15 this week
2 commentsread comments
1 2 3 4 5
excellent!
x 5
add to favorites
launch autoscroll
font size
0
reset
how to read this tab
guitar tuner
Tab Pro tools
  • play this tab
  • loop segment
  • change instrument
  • show fretboard
  • metronome
×
Best way to learn
"Carry Me"
Autoscroll
slow
fast
+/-
esc
set tempo
stop
Contributor
Difficulty
novice
Main Riff

E||--------------------------------------------||
B||--------------------------------------------||
G||--------------------------------------------||
D||--------------------------------------------||
A||0-2-2-0-2-2-0-5-4--2--0-2-2-0-2-2-0---------||
E||------------------------------------4-2--0--||



Verse

E||--------------------||
B||--------------------|| All except the last time through where it plays a 2 on the A string
G||--------------------|| rather than on that last 2 on the D string
D||4----2---------2----||
A||----------0---------|| NB:- this also gets played in the build up to the final chorus, doesn't 
E||--------------------||      seem to be there in the second verse but there's something similar
                        on a synth so bleh.


Post-Verse

All tremolo picking

E||--------------------------------|     |-----------------------------||
B||7------14-------7-------2-------|     |7-------14-------7-------12--||Or something like that.
G||7------14-------7-------2-------| (x3)|7-------14-------7-------13--||First bit the bass is playing 
D||--------------------------------|     |-----------------------------||D - F# - D - A and then the 
A||--------------------------------|     |-----------------------------||final bit is D - F# - A
E||--------------------------------|     |-----------------------------||




Pre-Chorus/Chorus, the bit with just the little tremolo chords, this song doesn't 
have very well defined sections

E||------------------------------------------------------------------------||
B||12-------10-------14-------16-------14-------10-------12----------------||
G||13-------11-------14-------16-------14-------11-------13----------------||
D||------------------------------------------------------------------------||
A||------------------------------------------------------------------------||
E||------------------------------------------------------------------------||



Chorus


E||------------------------------------------------------------||
B||7-------14-------12-------14-------7-------12---------------||
G||7-------14-------13-------14-------7-------13---------------||
D||------------------------------------------------------------||
A||------------------------------------------------------------||
E||------------------------------------------------------------||



There are some other bits and pieces in there so feel free to comment.
comments
print report bad tab
2 comments total.
0 reply
Tomr221 wrote on February 18 2014, 08:19 am

Good effort! I've been waiting for somebody to tab this! It's all there but there are a few minor errors I would like to correct for the tremolo picking.

Pre - Chorus (For the first chorus anyway. It is also played in the outro)


E||--------------------------------------------------------------------||
B||12-------10-------14-------16-------10-------14-------12------------||
G||13-------11-------14-------16-------11-------14-------13------------||
D||--------------------------------------------------------------------||
A||--------------------------------------------------------------------||
E||--------------------------------------------------------------------||


Chorus

E||------------------------------------------------------------||
B||7-------14-------12-------14-------7-------14-------12------||
G||7-------14-------13-------14-------7-------14-------13------||
D||------------------------------------------------------------||
A||------------------------------------------------------------||
E||------------------------------------------------------------||


And finally, the first bit of tremolo picking is this (repeated twice)


E||-------------------------------------------------------------||
B||7------14-------7-------2-------7-------14-------7-------12--||
G||7------14-------7-------2-------7-------14-------7-------13--||
D||-------------------------------------------------------------||
A||-------------------------------------------------------------||
E||-------------------------------------------------------------||

0 reply
dannytbwfc wrote on February 19 2014, 07:50 am

Good work chaps, I'm loving this. Any more of the new stuff would be appreciated.

I want to post or [tab]
guest
You may want to rate the tab now too:
select rating
Please do not post tabs as comments. Select "correction" instead!