Oops, an error
Loading. Please wait.

Dust On The Ground Tab

version 1
version 1

Whole song

Interactive

Video

37,019 views 60 this week
3 commentsread comments
1 2 3 4 5
x 16
add to favorites
launch autoscroll
font size
0
reset
how to read this tab
guitar tuner
Autoscroll
slow
fast
+/-
esc
set tempo
stop
Help us to improve Ultimate-Guitar.com Take our survey!
×
Author
Difficulty
Capo
novice
3rd fret
-----------------------------------------------------------------------------
                DUST ON THE GROUND – BOMBAY BICYCLE CLUB
-----------------------------------------------------------------------------

Tuning: Capo 3

This is an acoustic cover that Bombay Bicycle Club did for watchlistentell on 
youtube;   http://www.youtube.com/watch?v=7vppHXehk4g
I haven’t tabbed it exactly as it is in the video, but it’s how I play it.


[Intro]

   C            G            Am        Em              
e|-------------------------|------------------------|
B|-------------0----0----0-|----1----0-----0----0---|
G|-------------0----0----0-|----2----0-----0----0---|     
D|-0h2p0-0-----0----0----0-|----2----2-----2----2---|
A|----------------2--------|-0-----------2----------|
E|-----------3--------3----|-------0----------0-----|


    C      G                  Am     Em
e|------------------------|------------------------|
B|----1-----0-----0----0--|----1----0-----0----0---| This repeats through the
G|----0-----0-----0----0--|----2----0-----0----0---| verses. Watch the video
D|----2-----0-----0----0--|----2----2-----2----2---| for the right timing.
A|-3----------2-----------|-0-----------2----------|
E|-------3----------3-----|-------0----------0-----|

         C       G
It's that ancient love    
         Am      Em
That you won't outgrow
         C       G
It's the fee you pay
         Am       Em
It's the debt you owe
Is that subtle way
That you throw me down
I am inches above
The dust on the ground



 Cmaj7                                   e|---5---7-------2h3p0---0------|
 And always quiet                        B|----------3---------------3---|     
               G                         G|------------------------------|  
 Always quiet now                        D|------------------------------|  
 Cmaj7                                   A|------------------------------|
 And always silent                       E|------------------------------|
                G
 Always silent now                         A second guitar plays this while     
 Cmaj7                                      the first plays the G chord.
 Now I don’t hide it
                  G
 I don't hide it now

It's that ancient love
That just moves along
And there's an itch so slight
Even when you're gone
Well I met you right
But I kept your wrong
And I must wait until I've found the ground that you are walking on

And always quiet
Always quiet now
And always silent
Always silent now
Now I don't hide it
I don't hide it now
Now I don't hide it
I don't hide it now


************************************

| h  Hammer-on
| p  Pull-off

************************************
Suggest correction
comments
print report bad tab
3 comments total.
0 reply
cocopops62 10 Jul 15, 2010 11:13 AM

niceeee tab, you gonna be posting any of the ones from the videos? fairyale lullaby maybe or leaving blues?

0 reply
penneyfarthing 82 Jul 16, 2010 07:19 PM

sorry, from which videos

+1 reply
rodgab 15 Jan 24, 2011 01:45 PM

Not a bad tab. One thing though, in the lead up to the chorus, there's a little bit on the A string that goes

A|-0-2-3--
E|--------

.... and into the C. And the very last chord in the chorus should be Bm. Good effort though, thanks!!

guest
You may want to rate the tab now too:
select rating
Wanna post a correction for this tab? Suggest correction