Oops, an error
Loading. Please wait.

Dust On The Ground Tab

version 4
version 4

Whole song

Interactive

Video

7,751 views 3 this week
3 commentsread comments
1 2 3 4 5
x 5
add to favorites
launch autoscroll
font size
0
reset
how to read this tab
guitar tuner
Autoscroll
slow
fast
+/-
esc
set tempo
stop
Help us to improve Ultimate-Guitar.com Take our survey!
×
Author
Difficulty
Capo
intermediate
3rd fret
Dust on the Ground - Bombay Bicycle Club

This is the tabs for this acoustic version:
http://www.youtube.com/watch?v=7vppHXehk4g

This is my first tab, pretty much correct to what they are playing.
If you keep listening to the song you will pick up the rhythem fast.
Enjoy!

Capo 3rd Fret

Intro and Verse:


e|-------------------------------------------------|
B|------------0----------0--------0-----------0----|
G|------------0----------0-0h2p0--0-----------0----|
D|--0h2p0-0---0-------0--0--------2-------2---2----|
A|--------------0h2p0-------------2-0h2p0-----2----|
E|----------3-----------3-------0-0---------0-0----|


Chorus:

Rhythem Guitar:
Csus7 & G

Lead:

e|--------------|
B|--------------|
G|--2-4---------|
D|------4-2-----|
A|----------5---|
E|--------------|


Outro Riff Lead (right at the end of the song):

e|-------------------------|
B|-------------------------|
G|--4p2p0------------------|
D|--------4p2p0------------|
A|--------------5p2p0-2----|
E|----------------------3--|


Tabbed by Matthew Flynn
Suggest correction
comments
print report bad tab
3 comments total.
0 reply
RadioGA-GA 164 Jul 24, 2011 04:17 AM

AWESOME

only missing an extra 0 \/

e|--------------------------------------------------|
B|------------0----------0---------0-----------0----|
G|------------0----------0-0h2p0-0-0-----------0----|
D|--0h2p0-0---0-------0--0---------2-------2---2----|
A|--------------0h2p0--------------2-0h2p0-----2----|
E|----------3-----------3--------0-0---------0-0----|

0 reply
kieranhallam 10 Aug 23, 2011 05:29 PM

Solid tab just I hear a 2h4p2 on the D string at the end of the verse section- might be a variation. And on the chorus section I play a 0 on the D string in between the G and D sections. But apart from that..

0 reply
MatthewFlynn 31 Nov 18, 2011 10:42 PM

Thanks for the correction and comments, I hope this all helped :).

guest
You may want to rate the tab now too:
select rating
Wanna post a correction for this tab? Suggest correction