Oops, an error
Loading. Please wait.

Dust On The Ground Tab

version 1
version 1

Whole song

Interactive

19,758 views 6 this week
2 commentsread comments
1 2 3 4 5
accurate
x 3
add to favorites
launch autoscroll
font size
0
reset
how to read this tab
guitar tuner
Autoscroll
slow
fast
+/-
esc
set tempo
stop
Help us to improve Ultimate-Guitar.com Take our survey!
×
Difficulty
novice
I know this is right because I've seen them play it live a few times and watched videos 
You can work out timings for yourself its not too hard.
Verse -

Rhythm:

e|---------------------------------------------------|
B|---------------------------------------------------|
G|--5555--44444444444444--2222--00000000000000--5555-|
D|--5555--55555555555555--2222--22222222222222--5555-|
A|--7777--55555555555555--3333--22222222222222--7777-|  Then repeat
E|---------------------------------------------------|

Lead:

e|----------------------7----------------------7-|
B|---8------8-------8-0----7-------7-------7-0---|
G|--9----7-9-----7-9------9-------9-------9------|
D|----9-9----9-9------------9-10-9--9-10-9-------|
A|-----------------------------------------------|
E|-----------------------------------------------| Repeat when needed

Chorus -

Rhythm:

e|--(0)-----(0)
B|--(0)-----(0)
G|--(0)-----(2)
D|--(2)-----(2)
A|--(3)-----(0)
E|--(0)-----(0)

Lead:

e|----------------------------------------------------|
B|----------12-12-12----------------------------------|
G|--14-14-14----------------11-11-11------------------|
D|------------------12-12-12--------14-14-14-12-12-12-|
A|----------------------------------------------------|
E|----------------------------------------------------|

Sam J
Suggest correction
Give kudos to tab author, rate the tab!
1 2 3 4 5
comments
print report bad tab
2 comments total.
0 reply
JoeAndThrills 10 wrote on October 6 2009, 11:36 am

sweet tab but isn't the second chord in the chorus:
e--0
b--0
G--0
D--0
A--2
E--3

might not be, but sounds better to me!X

0 reply
Sam_is__ 31 wrote on October 15 2009, 09:09 am

Yeah your right, the chord i've put down is only used just before it goes back into the verse.
I'll change it.

guest
You may want to rate the tab now too:
select rating
Please do not post tabs as comments. Select "correction" instead!