Oops, an error
Loading. Please wait.

Dust On The Ground Tab

version 2
version 2

Whole song

Interactive

15,431 views 15 this week
no commentswrite comment
1 2 3 4 5
accurate
x 3
add to favorites
launch autoscroll
font size
0
reset
how to read this tab
guitar tuner
Autoscroll
slow
fast
+/-
esc
set tempo
stop
Help us to improve Ultimate-Guitar.com Take our survey!
×
Author
Difficulty
novice
I know this is right because I've seen them play it live a few times and watched videos 
You can work out timings for yourself its not too hard.
Verse -

Rhythm:

e|---------------------------------------------------|
B|---------------------------------------------------|
G|--5555--44444444444444--2222--00000000000000--5555-|
D|--5555--55555555555555--2222--22222222222222--5555-|
A|--7777--55555555555555--3333--22222222222222--7777-|  Then repeat
E|---------------------------------------------------|

Lead:

e|----------------------7----------------------7-|
B|---8------8-------8-0----7-------7-------7-0---|
G|--9----7-9-----7-9------9-------9-------9------|
D|----9-9----9-9------------9-10-9--9-10-9-------|
A|-----------------------------------------------|
E|-----------------------------------------------| Repeat when needed

Chorus -

Rhythm:

e|--(0)-----(0)
B|--(0)-----(0)
G|--(0)-----(2)
D|--(2)-----(2)
A|--(3)-----(0)
E|--(0)-----(0)

Lead:

e|----------------------------------------------------|
B|----------12-12-12----------------------------------|
G|--14-14-14----------------11-11-11------------------|
D|------------------12-12-12--------14-14-14-12-12-12-|
A|----------------------------------------------------|
E|----------------------------------------------------|

Verse 2:
The Rhythm is the same as in the first verse the only difference is what Jack Steadman plays;

Lead:
Part I
e|--------------------------------|
B|--------------------------------|
G|------11--11--11--11--11--9--9--|
D|----12--12--12--12--12--12-12-12|  -: 4 times
A|--------------------------------|
E|--------------------------------|
Part II                               Part III
e|----------------------------------| -----------------------------|
B|-----12--12--12--12--12--10--12---| -----------10------10--------|
G|----------------------------------| ---11--11------11------11--9-|
D|---12--12--12--12--12--12--12--12-| -12--12--12--12--12--12--12--|
A|----------------------------------| -----------------------------|  
E|----------------------------------| -----------------------------|
Then repeat Part I till chorus start,
Sam J
Suggest correction
What's this?
You can suggest a correction to this tab. Community and Mods will review your correction and vote to approve or reject it.
comments
We did not receive enough feedback on this tab! Please rate:
print report bad tab
1 2 3 4 5
guest
You may want to rate the tab now too:
select rating
Please do not post tabs as comments. Select "correction" instead!