Oops, an error
Loading. Please wait.

Dust On The Ground Acoustic tab

version 9
version 9

Whole song

Interactive

Video

49 views 3 this week
no commentswrite comment
1 2 3 4 5
2 more votes to show rating
add to favorites
×
Save as Personal and add changes to this tab that will be seen only by you. Learn more ›
×
You can save this tab as Personal to edit and correct it or add notes. All changes will be seen only by you. Learn more »
launch autoscroll
font size
0
reset
how to read this tab
guitar tuner
edit
Autoscroll
slow
fast
+/-
esc
set tempo
stop
Artist: Bombay Bicycle Club 
Song: Dust on the Ground

Whole acoustic version

[Verse]
e|--------------------------|--------------------------|
B|--------------------------|--------------------------|
G|-----------0------0----0--|--0h2-0----0------0----0--|
D|--0h2-0----0------0----0--|-----------0------0----0--|
A|-------------0h2----------|-------------0h2----------|
E|---------3-----------3----|---------0-----------0----|

It's that ancient love    
That you won't outgrow
It's the fee you pay
It's the debt you owe
Is that subtle way
That you throw me down
I am inches above
The dust on the ground

[Chorus]
            Cmaj7         G     Cadd2 C#m11
e|------------------|----------|-----|--2--|
B|------------------|----------|--3--|--0--|
G|-----------0--0---|----------|--0--|--0--|
D|-----------2--0h2-|--0-4-2-0-|--2--|--2--|
A|--0--2--3--3--3---|--2-2-2-2-|--3--|--3--|
E|------------------|--3-3-3-3-|-----|-----|

Cmaj7                                  
And always quiet                         
               G                        
Always quiet now                       
Cmaj7                                  
And always silent                      
                G
Always silent now                         
Cmaj7         Cadd2                     
Now I don’t hide it
                  
I don't hide it now

[Verse]
e|--------------------------|--------------------------|
B|--------------------------|--------------------------|
G|-----------0------0----0--|--0h2-0----0------0----0--|
D|--0h2-0----0------0----0--|-----------0------0----0--|
A|-------------0h2----------|-------------0h2----------|
E|---------3-----------3----|---------0-----------0----|

It's that ancient love
That just moves along
And there's an itch so slight
Even when you're gone
Well I met you right
But I kept your wrong
And I must wait until I've found the ground that you are walking on

Cmaj7                                  
And always quiet                         
               G                        
Always quiet now                       
Cmaj7                                  
And always silent                      
                G
Always silent now                         
Cmaj7         Cadd2                    
Now I don’t hide it
                  G
I don't hide it now
Cmaj7         C#m11                    
Now I don’t hide it
                  
I don't hide it now

e|----------|----------|       |----------|----------|--------------------|
b|----------|----------|       |----------|----------|------------------0-|
g|----------|----------|       |----------|----------|-4p2p0------------0-|
d|--0-4-2-0-|--0-5-2-0-|       |--0-5-2-0-|--0-5-2-0-|------4p2p0-------0-|
a|--2-2-2-2-|--2-2-2-2-|       |--2-2-2-2-|--2-2-2-2-|-----------2p0----2-|
E|--3-3-3-3-|--3-3-3-3-| (x2)  |--3-3-3-3-|--3-3-3-3-|--------------2h3-3-|


************************************

| h  Hammer-on
| p  Pull-off

************************************

            
            
Suggest correction
Creating personal tab
Creating personal tab
You can edit any tab online and save it as your Personal.

You can edit, replace or remove any tab part or add personal notes – all changes will be seen only by you.

Personal tabs can be accessed anytime from any device, even offline.
Learn more »
Give kudos to tab author, rate the tab!
1 2 3 4 5
comments
print report bad tab
guest
You may want to rate the tab now too:
select rating
Wanna post a correction for this tab? Suggest correction