Oops, an error
Loading. Please wait.

Evening Morning Bass Tab

version 2
version 2

Whole song

Interactive

2,563 views 1 this week
no commentswrite comment
1 2 3 4 5
3 more votes to show rating
add to favorites
launch autoscroll
font size
0
reset
guitar tuner
Autoscroll
slow
fast
+/-
esc
set tempo
stop
Help us to improve Ultimate-Guitar.com Take our survey!
×
Author
Difficulty
novice
----------------------------------------------------------------------------                   
Bombay Bicycle Club - Evening/Morning                    
----------------------------------------------------------------------------


Tabbed By :Z88Handball 

Hi, its not perfect,
but it sounds fine when you play it with the original song,
Listen for the right timing.



G|----------------------------------|
D|--1111111111111133/---------------|
A|-------------------3333333333333--|
E|----------------------------------| x4

Bass solo/first verse:
G|--------------------35--|
D|---11111313-------5-----|
A|-----------33333--------|
E|------------------------|  x6

Chorus:
G|--------5-------535------35-------535--|
D|--11113-------------1111---------------|
A|-----------3333--------------3333------|
E|---------------------------------------| x4

Bass Solo/First Verse + Impro
G|-----------------3-3-353-|
D|---1111111-33333--5-5----|
A|-------------------------|
E|-------------------------|  4x


Bass Solo/ Second Verse  6x

Chorus: (Different to First Chorus)
G|-------535--------5-|
D|-----------1111-3---|
A|--3333--------------|
E|--------------------| x2

Then:
G|-------535------35---|
D|-----------1111------|
A|--3333---------------|
E|---------------------| x1

G|---------------|
D|--1------------|
A|-------3-------|
E|---------------| X4

Pause.

Outro:
G|-----------------------------------35/--|
D|--1111111111111313\--------------5------|
A|-------------------3333333333333--------|
E|----------------------------------------| x4



| /  slide up
| \  slide down

============================================================================
Suggest correction
Give kudos to tab author, rate the tab!
1 2 3 4 5
comments
print report bad tab
guest
You may want to rate the tab now too:
select rating
Wanna post a correction for this tab? Suggest correction